0
SECTION
2
HEADER
9
$INSUNITS
70
4
9
$ACADVER
1
AC1014
9
$HANDSEED
5
FFFF
0
ENDSEC
0
SECTION
2
TABLES
0
TABLE
2
VPORT
5
8
100
AcDbSymbolTable
0
ENDTAB
0
TABLE
2
LTYPE
5
5
100
AcDbSymbolTable
0
LTYPE
5
14
100
AcDbSymbolTableRecord
100
AcDbLinetypeTableRecord
2
BYBLOCK
70
0
0
LTYPE
5
15
100
AcDbSymbolTableRecord
100
AcDbLinetypeTableRecord
2
BYLAYER
70
0
0
ENDTAB
0
TABLE
2
LAYER
5
2
100
AcDbSymbolTable
70
2
0
LAYER
5
50
100
AcDbSymbolTableRecord
100
AcDbLayerTableRecord
2
0
70
0
6
CONTINUOUS
0
ENDTAB
0
TABLE
2
STYLE
5
3
100
AcDbSymbolTable
70
1
0
STYLE
5
11
100
AcDbSymbolTableRecord
100
AcDbTextStyleTableRecord
2
STANDARD
70
0
0
ENDTAB
0
TABLE
2
VIEW
5
6
100
AcDbSymbolTable
70
0
0
ENDTAB
0
TABLE
2
UCS
5
7
100
AcDbSymbolTable
70
0
0
ENDTAB
0
TABLE
2
APPID
5
9
100
AcDbSymbolTable
70
2
0
APPID
5
12
100
AcDbSymbolTableRecord
100
AcDbRegAppTableRecord
2
ACAD
70
0
0
ENDTAB
0
TABLE
2
DIMSTYLE
5
A
100
AcDbSymbolTable
70
1
0
ENDTAB
0
TABLE
2
BLOCK_RECORD
5
1
100
AcDbSymbolTable
70
1
0
BLOCK_RECORD
5
1F
100
AcDbSymbolTableRecord
100
AcDbBlockTableRecord
2
*MODEL_SPACE
0
BLOCK_RECORD
5
1B
100
AcDbSymbolTableRecord
100
AcDbBlockTableRecord
2
*PAPER_SPACE
0
ENDTAB
0
ENDSEC
0
SECTION
2
BLOCKS
0
BLOCK
5
20
100
AcDbEntity
100
AcDbBlockBegin
2
*MODEL_SPACE
0
ENDBLK
5
21
100
AcDbEntity
100
AcDbBlockEnd
0
BLOCK
5
1C
100
AcDbEntity
100
AcDbBlockBegin
2
*PAPER_SPACE
0
ENDBLK
5
1D
100
AcDbEntity
100
AcDbBlockEnd
0
ENDSEC
0
SECTION
2
ENTITIES
0
LWPOLYLINE
5
100
100
AcDbEntity
8
0
100
AcDbPolyline
90
28
70
1
43
0.0
10
-20.317278417271464
20
41.48247411723964
10
-17.019401360908912
20
42.366137611229135
42
-0.1989123673796579
10
-16.260582315806388
20
42.266237188724503
10
4.6726138435906259
20
30.18045075109745
42
-0.19891236737965545
10
5.1385396698796884
20
29.573244392415539
10
6.0222031638691806
20
26.275367336052959
42
-0.19891236737965753
10
5.9223027413645557
20
25.516548290950439
10
0.19523577134487158
20
15.596977320526744
42
0.065543462815269973
10
0.095335348840209305
20
15.355796365629143
10
0.03407417371089877
20
15.127166547515065
42
0.065543462815206538
10
0
20
14.868347502412666
10
7.6327832942979512e-16
20
3.4142135623731047
42
-0.19891236737965776
10
-0.29289321881345143
20
2.7071067811865572
10
-2.7071067811865501
20
0.29289321881345376
42
-0.19891236737965823
10
-3.4142135623730985
20
7.015201950950088e-17
10
-27.585786437626897
20
7.6327832942979512e-16
42
-0.19891236737965753
10
-28.292893218813443
20
0.29289321881345198
10
-30.707106781186546
20
2.7071067811865479
42
-0.1989123673796587
10
-31
20
3.4142135623730985
10
-31
20
14.422649730810395
42
-0.26794919243111515
10
-30.500000000000025
20
15.28867513459482
10
-28.909229724824005
20
16.20710678118661
42
0.19891236737965864
10
-28.44330389853495
20
16.814313139868542
10
-25.410370791075557
20
28.133373592865908
42
0.19891236737965759
10
-25.510271213580204
20
28.892192637968428
10
-26.428702860171974
20
30.48296291314443
42
-0.26794919243112775
10
-26.428702860171988
20
31.482962913144448
10
-20.924484775953385
20
41.016548290950574
42
-0.19891236737965776
0
LWPOLYLINE
5
101
100
AcDbEntity
8
0
100
AcDbPolyline
90
4
70
1
43
0.0
10
-11.10295875047642
20
25.663593939938863
42
-0.99999999999999989
10
-13.549920763991253
20
28.024182193831408
10
-10.76746524286518
20
30.908447568473917
42
-0.99999999999999989
10
-8.320503229350372
20
28.547859314581352
0
LWPOLYLINE
5
102
100
AcDbEntity
8
0
100
AcDbPolyline
90
4
70
1
43
0.0
10
-18.117257175246642
20
10.978650651765872
42
-0.99999999999999989
10
-14.817831782500896
20
11.799499040754061
10
-13.850287303627123
20
7.9104241944941034
42
-0.99999999999999989
10
-17.14971269637288
20
7.0895758055058966
0
CIRCLE
5
103
100
AcDbEntity
8
0
100
AcDbCircle
10
-22.124398728366394
20
21.187033817392518
30
0
40
1.7000000000000004
0
CIRCLE
5
104
100
AcDbEntity
8
0
100
AcDbCircle
10
-6.6695855077412149
20
17.045929095752587
30
0
40
1.6999999999999984
0
CIRCLE
5
105
100
AcDbEntity
8
0
100
AcDbCircle
10
-14.396992118053809
20
19.116481456572547
30
0
40
2.8867513459481313
0
CIRCLE
5
106
100
AcDbEntity
8
0
100
AcDbCircle
10
-16.472187466383314
20
33.728153441527617
30
-9.7971743931788237e-17
40
1.7000000000000004
0
CIRCLE
5
107
100
AcDbEntity
8
0
100
AcDbCircle
10
-2.6157810058322357
20
25.728153441527635
30
-9.7971743931788237e-17
40
1.6999999999999984
0
CIRCLE
5
108
100
AcDbEntity
8
0
100
AcDbCircle
10
-7.5000000000000009
20
7.5
30
-9.7971743931788237e-17
40
1.6999999999999993
0
CIRCLE
5
109
100
AcDbEntity
8
0
100
AcDbCircle
10
-23.5
20
7.5
30
-9.7971743931788237e-17
40
1.7000000000000004
0
ENDSEC
0
SECTION
2
OBJECTS
0
DICTIONARY
5
C
100
AcDbDictionary
3
ACAD_GROUP
350
D
3
ACAD_MLINESTYLE
350
17
0
DICTIONARY
5
D
100
AcDbDictionary
0
DICTIONARY
5
1A
330
C
100
AcDbDictionary
0
DICTIONARY
5
17
100
AcDbDictionary
0
ENDSEC
0
EOF
