0
SECTION
2
HEADER
9
$ACADVER
1
AC1009
0
ENDSEC
0
SECTION
2
TABLES
0
TABLE
2
VPORT
70
1
0
VPORT
2
ACTIVE
70
0
10
0.0
20
0.0
11
0.0
21
0.0
12
0.0
22
0.0
13
0.0
23
0.0
14
0.0
24
0.0
15
0.0
25
0.0
16
0.0
26
0.0
36
0.0
17
0.0
27
0.0
37
0.0
40
0.0
41
0.0
42
0.0
43
0.0
44
0.0
50
0.0
51
0.0
71
0
72
1000
73
1
74
3
75
0
76
0
77
0
78
0
0
ENDTAB
0
ENDSEC
0
SECTION
2
ENTITIES
0
LINE
8
hole
62
5
10
4.998830
20
10.365776
11
5.011189
21
10.353492
0
LINE
8
hole
62
5
10
5.011189
20
10.353492
11
5.024663
21
10.335613
0
LINE
8
hole
62
5
10
5.024663
20
10.335613
11
5.035002
21
10.321962
0
LINE
8
hole
62
5
10
5.035002
20
10.321962
11
5.045689
21
10.302150
0
LINE
8
hole
62
5
10
5.045689
20
10.302150
11
5.054057
21
10.287096
0
LINE
8
hole
62
5
10
5.054057
20
10.287096
11
5.061536
21
10.266165
0
LINE
8
hole
62
5
10
5.061536
20
10.266165
11
5.067630
21
10.250279
0
LINE
8
hole
62
5
10
5.067630
20
10.250279
11
5.072605
21
10.228680
0
LINE
8
hole
62
5
10
5.072605
20
10.228680
11
5.076883
21
10.212268
0
LINE
8
hole
62
5
10
5.076883
20
10.212268
11
5.080686
21
10.190126
0
LINE
8
hole
62
5
10
5.080686
20
10.190126
11
5.084025
21
10.173267
0
LINE
8
hole
62
5
10
5.084025
20
10.173267
11
5.087087
21
10.151255
0
LINE
8
hole
62
5
10
5.087087
20
10.151255
11
5.089748
21
10.134460
0
LINE
8
hole
62
5
10
5.089748
20
10.134460
11
5.091987
21
10.112070
0
LINE
8
hole
62
5
10
5.091987
20
10.112070
11
5.093929
21
10.094965
0
LINE
8
hole
62
5
10
5.093929
20
10.094965
11
5.095263
21
10.072421
0
LINE
8
hole
62
5
10
5.095263
20
10.072421
11
5.096426
21
10.055187
0
LINE
8
hole
62
5
10
5.096426
20
10.055187
11
5.096937
21
10.032573
0
LINE
8
hole
62
5
10
5.096937
20
10.032573
11
5.097385
21
10.015276
0
LINE
8
hole
62
5
10
5.097385
20
10.015276
11
5.097383
21
9.992659
0
LINE
8
hole
62
5
10
5.097383
20
9.992659
11
5.097381
21
9.975358
0
LINE
8
hole
62
5
10
5.097381
20
9.975358
11
5.097304
21
9.952739
0
LINE
8
hole
62
5
10
5.097304
20
9.952739
11
5.097237
21
9.935438
0
LINE
8
hole
62
5
10
5.097237
20
9.935438
11
5.097250
21
9.912816
0
LINE
8
hole
62
5
10
5.097250
20
9.912816
11
5.097261
21
9.895511
0
LINE
8
hole
62
5
10
5.097261
20
9.895511
11
5.097284
21
9.872888
0
LINE
8
hole
62
5
10
5.097284
20
9.872888
11
5.097305
21
9.855583
0
LINE
8
hole
62
5
10
5.097305
20
9.855583
11
5.097303
21
9.832961
0
LINE
8
hole
62
5
10
5.097303
20
9.832961
11
5.097301
21
9.815656
0
LINE
8
hole
62
5
10
5.097301
20
9.815656
11
5.097294
21
9.793096
0
LINE
8
hole
62
5
10
5.097294
20
9.793096
11
5.097288
21
9.775840
0
LINE
8
hole
62
5
10
5.097288
20
9.775840
11
5.097288
21
9.753155
0
LINE
8
hole
62
5
10
5.097288
20
9.753155
11
5.097288
21
9.735803
0
LINE
8
hole
62
5
10
5.097288
20
9.735803
11
5.097290
21
9.713710
0
LINE
8
hole
62
5
10
5.097290
20
9.713710
11
5.097292
21
9.696810
0
LINE
8
hole
62
5
10
5.097292
20
9.696810
11
5.097292
21
9.673659
0
LINE
8
hole
62
5
10
5.097292
20
9.673659
11
5.097293
21
9.655952
0
LINE
8
hole
62
5
10
5.097293
20
9.655952
11
5.097292
21
9.633330
0
LINE
8
hole
62
5
10
5.097292
20
9.633330
11
5.097291
21
9.616025
0
LINE
8
hole
62
5
10
5.097291
20
9.616025
11
5.097291
21
9.593402
0
LINE
8
hole
62
5
10
5.097291
20
9.593402
11
5.097290
21
9.576098
0
LINE
8
hole
62
5
10
5.097290
20
9.576098
11
5.097291
21
9.553782
0
LINE
8
hole
62
5
10
5.097291
20
9.553782
11
5.097291
21
9.536712
0
LINE
8
hole
62
5
10
5.097291
20
9.536712
11
5.097293
21
9.513786
0
LINE
8
hole
62
5
10
5.097293
20
9.513786
11
5.097295
21
9.496248
0
LINE
8
hole
62
5
10
5.097295
20
9.496248
11
5.097293
21
9.473626
0
LINE
8
hole
62
5
10
5.097293
20
9.473626
11
5.097292
21
9.456322
0
LINE
8
hole
62
5
10
5.097292
20
9.456322
11
5.097187
21
9.433694
0
LINE
8
hole
62
5
10
5.097187
20
9.433694
11
5.097104
21
9.416386
0
LINE
8
hole
62
5
10
5.097104
20
9.416386
11
5.096244
21
9.393788
0
LINE
8
hole
62
5
10
5.096244
20
9.393788
11
5.095587
21
9.376502
0
LINE
8
hole
62
5
10
5.095587
20
9.376502
11
5.094395
21
9.365296
0
LINE
8
hole
62
5
10
5.094395
20
9.365296
11
5.094395
21
9.365296
0
LINE
8
hole
62
5
10
5.094395
20
9.365296
11
5.113145
21
9.346546
0
LINE
8
hole
62
5
10
5.113145
20
9.346546
11
5.312537
21
9.346546
0
LINE
8
hole
62
5
10
5.312537
20
9.346546
11
5.332813
21
9.360094
0
LINE
8
hole
62
5
10
5.332813
20
9.360094
11
5.356731
21
9.364852
0
LINE
8
hole
62
5
10
5.356731
20
9.364852
11
5.380648
21
9.360094
0
LINE
8
hole
62
5
10
5.380648
20
9.360094
11
5.400925
21
9.346546
0
LINE
8
hole
62
5
10
5.400925
20
9.346546
11
5.414473
21
9.326269
0
LINE
8
hole
62
5
10
5.414473
20
9.326269
11
5.419231
21
9.302352
0
LINE
8
hole
62
5
10
5.419231
20
9.302352
11
5.414473
21
9.278434
0
LINE
8
hole
62
5
10
5.414473
20
9.278434
11
5.400925
21
9.258157
0
LINE
8
hole
62
5
10
5.400925
20
9.258157
11
5.400925
21
9.059934
0
LINE
8
hole
62
5
10
5.400925
20
9.059934
11
5.414473
21
9.039658
0
LINE
8
hole
62
5
10
5.414473
20
9.039658
11
5.419231
21
9.015740
0
LINE
8
hole
62
5
10
5.419231
20
9.015740
11
5.414473
21
8.991822
0
LINE
8
hole
62
5
10
5.414473
20
8.991822
11
5.400925
21
8.971546
0
LINE
8
hole
62
5
10
5.400925
20
8.971546
11
5.380648
21
8.957997
0
LINE
8
hole
62
5
10
5.380648
20
8.957997
11
5.356731
21
8.953240
0
LINE
8
hole
62
5
10
5.356731
20
8.953240
11
5.332813
21
8.957997
0
LINE
8
hole
62
5
10
5.332813
20
8.957997
11
5.312537
21
8.971546
0
LINE
8
hole
62
5
10
5.312537
20
8.971546
11
4.931637
21
8.971546
0
LINE
8
hole
62
5
10
4.931637
20
8.971546
11
4.912887
21
8.952796
0
LINE
8
hole
62
5
10
4.912887
20
8.952796
11
4.906646
21
8.944582
0
LINE
8
hole
62
5
10
4.906646
20
8.944582
11
4.892569
21
8.927274
0
LINE
8
hole
62
5
10
4.892569
20
8.927274
11
4.881868
21
8.913980
0
LINE
8
hole
62
5
10
4.881868
20
8.913980
11
4.867001
21
8.896552
0
LINE
8
hole
62
5
10
4.867001
20
8.896552
11
4.855684
21
8.883174
0
LINE
8
hole
62
5
10
4.855684
20
8.883174
11
4.841180
21
8.866827
0
LINE
8
hole
62
5
10
4.841180
20
8.866827
11
4.830127
21
8.854287
0
LINE
8
hole
62
5
10
4.830127
20
8.854287
11
4.814337
21
8.837043
0
LINE
8
hole
62
5
10
4.814337
20
8.837043
11
4.802290
21
8.823824
0
LINE
8
hole
62
5
10
4.802290
20
8.823824
11
4.786816
21
8.807324
0
LINE
8
hole
62
5
10
4.786816
20
8.807324
11
4.774998
21
8.794685
0
LINE
8
hole
62
5
10
4.774998
20
8.794685
11
4.759399
21
8.778302
0
LINE
8
hole
62
5
10
4.759399
20
8.778302
11
4.747475
21
8.765762
0
LINE
8
hole
62
5
10
4.747475
20
8.765762
11
4.732207
21
8.749810
0
LINE
8
hole
62
5
10
4.732207
20
8.749810
11
4.720527
21
8.737608
0
LINE
8
hole
62
5
10
4.720527
20
8.737608
11
4.704547
21
8.720841
0
LINE
8
hole
62
5
10
4.704547
20
8.720841
11
4.692318
21
8.708021
0
LINE
8
hole
62
5
10
4.692318
20
8.708021
11
4.676746
21
8.691473
0
LINE
8
hole
62
5
10
4.676746
20
8.691473
11
4.664828
21
8.678822
0
LINE
8
hole
62
5
10
4.664828
20
8.678822
11
4.649548
21
8.662277
0
LINE
8
hole
62
5
10
4.649548
20
8.662277
11
4.637857
21
8.649624
0
LINE
8
hole
62
5
10
4.637857
20
8.649624
11
4.622668
21
8.632859
0
LINE
8
hole
62
5
10
4.622668
20
8.632859
11
4.611050
21
8.620035
0
LINE
8
hole
62
5
10
4.611050
20
8.620035
11
4.596014
21
8.603134
0
LINE
8
hole
62
5
10
4.596014
20
8.603134
11
4.584517
21
8.590202
0
LINE
8
hole
62
5
10
4.584517
20
8.590202
11
4.569631
21
8.573167
0
LINE
8
hole
62
5
10
4.569631
20
8.573167
11
4.558252
21
8.560131
0
LINE
8
hole
62
5
10
4.558252
20
8.560131
11
4.543692
21
8.543180
0
LINE
8
hole
62
5
10
4.543692
20
8.543180
11
4.532566
21
8.530206
0
LINE
8
hole
62
5
10
4.532566
20
8.530206
11
4.517791
21
8.512713
0
LINE
8
hole
62
5
10
4.517791
20
8.512713
11
4.506502
21
8.499320
0
LINE
8
hole
62
5
10
4.506502
20
8.499320
11
4.492044
21
8.481922
0
LINE
8
hole
62
5
10
4.492044
20
8.481922
11
4.481001
21
8.468601
0
LINE
8
hole
62
5
10
4.481001
20
8.468601
11
4.466678
21
8.451091
0
LINE
8
hole
62
5
10
4.466678
20
8.451091
11
4.455740
21
8.437684
0
LINE
8
hole
62
5
10
4.455740
20
8.437684
11
4.441546
21
8.420071
0
LINE
8
hole
62
5
10
4.441546
20
8.420071
11
4.430709
21
8.406581
0
LINE
8
hole
62
5
10
4.430709
20
8.406581
11
4.416638
21
8.388870
0
LINE
8
hole
62
5
10
4.416638
20
8.388870
11
4.405898
21
8.375303
0
LINE
8
hole
62
5
10
4.405898
20
8.375303
11
4.391945
21
8.357499
0
LINE
8
hole
62
5
10
4.391945
20
8.357499
11
4.381295
21
8.343862
0
LINE
8
hole
62
5
10
4.381295
20
8.343862
11
4.367452
21
8.325974
0
LINE
8
hole
62
5
10
4.367452
20
8.325974
11
4.356888
21
8.312270
0
LINE
8
hole
62
5
10
4.356888
20
8.312270
11
4.343150
21
8.294300
0
LINE
8
hole
62
5
10
4.343150
20
8.294300
11
4.332668
21
8.280533
0
LINE
8
hole
62
5
10
4.332668
20
8.280533
11
4.319031
21
8.262485
0
LINE
8
hole
62
5
10
4.319031
20
8.262485
11
4.308627
21
8.248661
0
LINE
8
hole
62
5
10
4.308627
20
8.248661
11
4.295400
21
8.230959
0
LINE
8
hole
62
5
10
4.295400
20
8.230959
11
4.285308
21
8.217397
0
LINE
8
hole
62
5
10
4.285308
20
8.217397
11
4.271557
21
8.198786
0
LINE
8
hole
62
5
10
4.271557
20
8.198786
11
4.261067
21
8.184528
0
LINE
8
hole
62
5
10
4.261067
20
8.184528
11
4.248307
21
8.167060
0
LINE
8
hole
62
5
10
4.248307
20
8.167060
11
4.238576
21
8.153676
0
LINE
8
hole
62
5
10
4.238576
20
8.153676
11
4.224761
21
8.134535
0
LINE
8
hole
62
5
10
4.224761
20
8.134535
11
4.214229
21
8.119869
0
LINE
8
hole
62
5
10
4.214229
20
8.119869
11
4.200498
21
8.100592
0
LINE
8
hole
62
5
10
4.200498
20
8.100592
11
4.190035
21
8.085819
0
LINE
8
hole
62
5
10
4.190035
20
8.085819
11
4.177629
21
8.068176
0
LINE
8
hole
62
5
10
4.177629
20
8.068176
11
4.168180
21
8.054652
0
LINE
8
hole
62
5
10
4.168180
20
8.054652
11
4.155720
21
8.036702
0
LINE
8
hole
62
5
10
4.155720
20
8.036702
11
4.146234
21
8.022940
0
LINE
8
hole
62
5
10
4.146234
20
8.022940
11
4.133027
21
8.003649
0
LINE
8
hole
62
5
10
4.133027
20
8.003649
11
4.122979
21
7.988856
0
LINE
8
hole
62
5
10
4.122979
20
7.988856
11
4.110413
21
7.970205
0
LINE
8
hole
62
5
10
4.110413
20
7.970205
11
4.100861
21
7.955900
0
LINE
8
hole
62
5
10
4.100861
20
7.955900
11
4.088307
21
7.936946
0
LINE
8
hole
62
5
10
4.088307
20
7.936946
11
4.078770
21
7.922404
0
LINE
8
hole
62
5
10
4.078770
20
7.922404
11
4.066417
21
7.903472
0
LINE
8
hole
62
5
10
4.066417
20
7.903472
11
4.057039
21
7.888942
0
LINE
8
hole
62
5
10
4.057039
20
7.888942
11
4.044813
21
7.869928
0
LINE
8
hole
62
5
10
4.044813
20
7.869928
11
4.035538
21
7.855336
0
LINE
8
hole
62
5
10
4.035538
20
7.855336
11
4.023543
21
7.836181
0
LINE
8
hole
62
5
10
4.023543
20
7.836181
11
4.014459
21
7.821473
0
LINE
8
hole
62
5
10
4.014459
20
7.821473
11
4.003053
21
7.802561
0
LINE
8
hole
62
5
10
4.003053
20
7.802561
11
3.994441
21
7.788026
0
LINE
8
hole
62
5
10
3.994441
20
7.788026
11
3.982684
21
7.768160
0
LINE
8
hole
62
5
10
3.982684
20
7.768160
11
3.973816
21
7.752890
0
LINE
8
hole
62
5
10
3.973816
20
7.752890
11
3.962217
21
7.733499
0
LINE
8
hole
62
5
10
3.962217
20
7.733499
11
3.953444
21
7.718607
0
LINE
8
hole
62
5
10
3.953444
20
7.718607
11
3.941675
21
7.699304
0
LINE
8
hole
62
5
10
3.941675
20
7.699304
11
3.932744
21
7.684496
0
LINE
8
hole
62
5
10
3.932744
20
7.684496
11
3.920828
21
7.665273
0
LINE
8
hole
62
5
10
3.920828
20
7.665273
11
3.911756
21
7.650542
0
LINE
8
hole
62
5
10
3.911756
20
7.650542
11
3.899671
21
7.631419
0
LINE
8
hole
62
5
10
3.899671
20
7.631419
11
3.890439
21
7.616784
0
LINE
8
hole
62
5
10
3.890439
20
7.616784
11
3.878136
21
7.597802
0
LINE
8
hole
62
5
10
3.878136
20
7.597802
11
3.868701
21
7.583298
0
LINE
8
hole
62
5
10
3.868701
20
7.583298
11
3.856134
21
7.564504
0
LINE
8
hole
62
5
10
3.856134
20
7.564504
11
3.846454
21
7.550172
0
LINE
8
hole
62
5
10
3.846454
20
7.550172
11
3.833579
21
7.531619
0
LINE
8
hole
62
5
10
3.833579
20
7.531619
11
3.823617
21
7.517506
0
LINE
8
hole
62
5
10
3.823617
20
7.517506
11
3.810385
21
7.499261
0
LINE
8
hole
62
5
10
3.810385
20
7.499261
11
3.800097
21
7.485427
0
LINE
8
hole
62
5
10
3.800097
20
7.485427
11
3.786912
21
7.468161
0
LINE
8
hole
62
5
10
3.786912
20
7.468161
11
3.776610
21
7.455118
0
LINE
8
hole
62
5
10
3.776610
20
7.455118
11
3.762072
21
7.437176
0
LINE
8
hole
62
5
10
3.762072
20
7.437176
11
3.750658
21
7.423689
0
LINE
8
hole
62
5
10
3.750658
20
7.423689
11
3.736164
21
7.406886
0
LINE
8
hole
62
5
10
3.736164
20
7.406886
11
3.724726
21
7.394336
0
LINE
8
hole
62
5
10
3.724726
20
7.394336
11
3.709860
21
7.378168
0
LINE
8
hole
62
5
10
3.709860
20
7.378168
11
3.698068
21
7.366188
0
LINE
8
hole
62
5
10
3.698068
20
7.366188
11
3.682300
21
7.350192
0
LINE
8
hole
62
5
10
3.682300
20
7.350192
11
3.669732
21
7.338456
0
LINE
8
hole
62
5
10
3.669732
20
7.338456
11
3.654758
21
7.324374
0
LINE
8
hole
62
5
10
3.654758
20
7.324374
11
3.642777
21
7.314162
0
LINE
8
hole
62
5
10
3.642777
20
7.314162
11
3.627557
21
7.301058
0
LINE
8
hole
62
5
10
3.627557
20
7.301058
11
3.615359
21
7.291680
0
LINE
8
hole
62
5
10
3.615359
20
7.291680
11
3.598272
21
7.278498
0
LINE
8
hole
62
5
10
3.598272
20
7.278498
11
3.584581
21
7.269221
0
LINE
8
hole
62
5
10
3.584581
20
7.269221
11
3.568080
21
7.257919
0
LINE
8
hole
62
5
10
3.568080
20
7.257919
11
3.554870
21
7.250131
0
LINE
8
hole
62
5
10
3.554870
20
7.250131
11
3.537577
21
7.239660
0
LINE
8
hole
62
5
10
3.537577
20
7.239660
11
3.523751
21
7.232636
0
LINE
8
hole
62
5
10
3.523751
20
7.232636
11
3.506480
21
7.223531
0
LINE
8
hole
62
5
10
3.506480
20
7.223531
11
3.492705
21
7.217638
0
LINE
8
hole
62
5
10
3.492705
20
7.217638
11
3.475202
21
7.209768
0
LINE
8
hole
62
5
10
3.475202
20
7.209768
11
3.461295
21
7.204917
0
LINE
8
hole
62
5
10
3.461295
20
7.204917
11
3.443691
21
7.198364
0
LINE
8
hole
62
5
10
3.443691
20
7.198364
11
3.429759
21
7.194605
0
LINE
8
hole
62
5
10
3.429759
20
7.194605
11
3.412783
21
7.189623
0
LINE
8
hole
62
5
10
3.412783
20
7.189623
11
3.399401
21
7.187091
0
LINE
8
hole
62
5
10
3.399401
20
7.187091
11
3.380907
21
7.183381
0
LINE
8
hole
62
5
10
3.380907
20
7.183381
11
3.366465
21
7.181958
0
LINE
8
hole
62
5
10
3.366465
20
7.181958
11
3.347298
21
7.180165
0
LINE
8
hole
62
5
10
3.347298
20
7.180165
11
3.332589
21
7.180180
0
LINE
8
hole
62
5
10
3.332589
20
7.180180
11
3.312872
21
7.182112
0
LINE
8
hole
62
5
10
3.312872
20
7.182112
11
3.297924
21
7.184773
0
LINE
8
hole
62
5
10
3.297924
20
7.184773
11
3.279824
21
7.193955
0
LINE
8
hole
62
5
10
3.279824
20
7.193955
11
3.266079
21
7.201568
0
LINE
8
hole
62
5
10
3.266079
20
7.201568
11
3.250982
21
7.218121
0
LINE
8
hole
62
5
10
3.250982
20
7.218121
11
3.239368
21
7.230751
0
LINE
8
hole
62
5
10
3.239368
20
7.230751
11
3.227632
21
7.250592
0
LINE
8
hole
62
5
10
3.227632
20
7.250592
11
3.218396
21
7.265534
0
LINE
8
hole
62
5
10
3.218396
20
7.265534
11
3.209792
21
7.285999
0
LINE
8
hole
62
5
10
3.209792
20
7.285999
11
3.202791
21
7.301478
0
LINE
8
hole
62
5
10
3.202791
20
7.301478
11
3.196291
21
7.322501
0
LINE
8
hole
62
5
10
3.196291
20
7.322501
11
3.190854
21
7.338455
0
LINE
8
hole
62
5
10
3.190854
20
7.338455
11
3.185744
21
7.360071
0
LINE
8
hole
62
5
10
3.185744
20
7.360071
11
3.181399
21
7.376503
0
LINE
8
hole
62
5
10
3.181399
20
7.376503
11
3.177863
21
7.397549
0
LINE
8
hole
62
5
10
3.177863
20
7.397549
11
3.174760
21
7.413577
0
LINE
8
hole
62
5
10
3.174760
20
7.413577
11
3.172498
21
7.436707
0
LINE
8
hole
62
5
10
3.172498
20
7.436707
11
3.170338
21
7.454357
0
LINE
8
hole
62
5
10
3.170338
20
7.454357
11
3.169633
21
7.477671
0
LINE
8
hole
62
5
10
3.169633
20
7.477671
11
3.168665
21
7.495492
0
LINE
8
hole
62
5
10
3.168665
20
7.495492
11
3.169243
21
7.516730
0
LINE
8
hole
62
5
10
3.169243
20
7.516730
11
3.169300
21
7.532986
0
LINE
8
hole
62
5
10
3.169300
20
7.532986
11
3.170989
21
7.555839
0
LINE
8
hole
62
5
10
3.170989
20
7.555839
11
3.171881
21
7.573349
0
LINE
8
hole
62
5
10
3.171881
20
7.573349
11
3.174305
21
7.594982
0
LINE
8
hole
62
5
10
3.174305
20
7.594982
11
3.175805
21
7.611568
0
LINE
8
hole
62
5
10
3.175805
20
7.611568
11
3.179030
21
7.633733
0
LINE
8
hole
62
5
10
3.179030
20
7.633733
11
3.181166
21
7.650737
0
LINE
8
hole
62
5
10
3.181166
20
7.650737
11
3.185079
21
7.672838
0
LINE
8
hole
62
5
10
3.185079
20
7.672838
11
3.187778
21
7.689796
0
LINE
8
hole
62
5
10
3.187778
20
7.689796
11
3.192240
21
7.711258
0
LINE
8
hole
62
5
10
3.192240
20
7.711258
11
3.195410
21
7.727725
0
LINE
8
hole
62
5
10
3.195410
20
7.727725
11
3.200775
21
7.750204
0
LINE
8
hole
62
5
10
3.200775
20
7.750204
11
3.204671
21
7.767448
0
LINE
8
hole
62
5
10
3.204671
20
7.767448
11
3.210478
21
7.789256
0
LINE
8
hole
62
5
10
3.210478
20
7.789256
11
3.214762
21
7.805979
0
LINE
8
hole
62
5
10
3.214762
20
7.805979
11
3.221043
21
7.827679
0
LINE
8
hole
62
5
10
3.221043
20
7.827679
11
3.225726
21
7.844312
0
LINE
8
hole
62
5
10
3.225726
20
7.844312
11
3.232391
21
7.865911
0
LINE
8
hole
62
5
10
3.232391
20
7.865911
11
3.237397
21
7.882460
0
LINE
8
hole
62
5
10
3.237397
20
7.882460
11
3.244064
21
7.903068
0
LINE
8
hole
62
5
10
3.244064
20
7.903068
11
3.249097
21
7.918853
0
LINE
8
hole
62
5
10
3.249097
20
7.918853
11
3.256596
21
7.941196
0
LINE
8
hole
62
5
10
3.256596
20
7.941196
11
3.262278
21
7.958305
0
LINE
8
hole
62
5
10
3.262278
20
7.958305
11
3.270017
21
7.980708
0
LINE
8
hole
62
5
10
3.270017
20
7.980708
11
3.275894
21
7.997859
0
LINE
8
hole
62
5
10
3.275894
20
7.997859
11
3.283060
21
8.018169
0
LINE
8
hole
62
5
10
3.283060
20
8.018169
11
3.288511
21
8.033714
0
LINE
8
hole
62
5
10
3.288511
20
8.033714
11
3.296146
21
8.055009
0
LINE
8
hole
62
5
10
3.296146
20
8.055009
11
3.301961
21
8.071305
0
LINE
8
hole
62
5
10
3.301961
20
8.071305
11
3.309686
21
8.092566
0
LINE
8
hole
62
5
10
3.309686
20
8.092566
11
3.315576
21
8.108836
0
LINE
8
hole
62
5
10
3.315576
20
8.108836
11
3.323376
21
8.130071
0
LINE
8
hole
62
5
10
3.323376
20
8.130071
11
3.329327
21
8.146319
0
LINE
8
hole
62
5
10
3.329327
20
8.146319
11
3.337189
21
8.167531
0
LINE
8
hole
62
5
10
3.337189
20
8.167531
11
3.343192
21
8.183760
0
LINE
8
hole
62
5
10
3.343192
20
8.183760
11
3.351105
21
8.204954
0
LINE
8
hole
62
5
10
3.351105
20
8.204954
11
3.357149
21
8.221168
0
LINE
8
hole
62
5
10
3.357149
20
8.221168
11
3.365104
21
8.242344
0
LINE
8
hole
62
5
10
3.365104
20
8.242344
11
3.371183
21
8.258546
0
LINE
8
hole
62
5
10
3.371183
20
8.258546
11
3.379175
21
8.279709
0
LINE
8
hole
62
5
10
3.379175
20
8.279709
11
3.385283
21
8.295899
0
LINE
8
hole
62
5
10
3.385283
20
8.295899
11
3.393308
21
8.317049
0
LINE
8
hole
62
5
10
3.393308
20
8.317049
11
3.399441
21
8.333230
0
LINE
8
hole
62
5
10
3.399441
20
8.333230
11
3.407794
21
8.355154
0
LINE
8
hole
62
5
10
3.407794
20
8.355154
11
3.414179
21
8.371926
0
LINE
8
hole
62
5
10
3.414179
20
8.371926
11
3.421958
21
8.392272
0
LINE
8
hole
62
5
10
3.421958
20
8.392272
11
3.427906
21
8.407837
0
LINE
8
hole
62
5
10
3.427906
20
8.407837
11
3.436140
21
8.429309
0
LINE
8
hole
62
5
10
3.436140
20
8.429309
11
3.442436
21
8.445733
0
LINE
8
hole
62
5
10
3.442436
20
8.445733
11
3.450422
21
8.466499
0
LINE
8
hole
62
5
10
3.450422
20
8.466499
11
3.456528
21
8.482384
0
LINE
8
hole
62
5
10
3.456528
20
8.482384
11
3.464665
21
8.503492
0
LINE
8
hole
62
5
10
3.464665
20
8.503492
11
3.470887
21
8.519639
0
LINE
8
hole
62
5
10
3.470887
20
8.519639
11
3.479038
21
8.540741
0
LINE
8
hole
62
5
10
3.479038
20
8.540741
11
3.485272
21
8.556883
0
LINE
8
hole
62
5
10
3.485272
20
8.556883
11
3.493148
21
8.577235
0
LINE
8
hole
62
5
10
3.493148
20
8.577235
11
3.499172
21
8.592803
0
LINE
8
hole
62
5
10
3.499172
20
8.592803
11
3.507638
21
8.614641
0
LINE
8
hole
62
5
10
3.507638
20
8.614641
11
3.514113
21
8.631346
0
LINE
8
hole
62
5
10
3.514113
20
8.631346
11
3.522628
21
8.653274
0
LINE
8
hole
62
5
10
3.522628
20
8.653274
11
3.529141
21
8.670048
0
LINE
8
hole
62
5
10
3.529141
20
8.670048
11
3.537013
21
8.690292
0
LINE
8
hole
62
5
10
3.537013
20
8.690292
11
3.543034
21
8.705777
0
LINE
8
hole
62
5
10
3.543034
20
8.705777
11
3.551241
21
8.726859
0
LINE
8
hole
62
5
10
3.551241
20
8.726859
11
3.557519
21
8.742984
0
LINE
8
hole
62
5
10
3.557519
20
8.742984
11
3.565734
21
8.764061
0
LINE
8
hole
62
5
10
3.565734
20
8.764061
11
3.572018
21
8.780184
0
LINE
8
hole
62
5
10
3.572018
20
8.780184
11
3.580240
21
8.801259
0
LINE
8
hole
62
5
10
3.580240
20
8.801259
11
3.586530
21
8.817380
0
LINE
8
hole
62
5
10
3.586530
20
8.817380
11
3.595072
21
8.839252
0
LINE
8
hole
62
5
10
3.595072
20
8.839252
11
3.601606
21
8.855982
0
LINE
8
hole
62
5
10
3.601606
20
8.855982
11
3.609529
21
8.876252
0
LINE
8
hole
62
5
10
3.609529
20
8.876252
11
3.615590
21
8.891757
0
LINE
8
hole
62
5
10
3.615590
20
8.891757
11
3.623832
21
8.912824
0
LINE
8
hole
62
5
10
3.623832
20
8.912824
11
3.630137
21
8.928939
0
LINE
8
hole
62
5
10
3.630137
20
8.928939
11
3.638384
21
8.950004
0
LINE
8
hole
62
5
10
3.638384
20
8.950004
11
3.644693
21
8.966118
0
LINE
8
hole
62
5
10
3.644693
20
8.966118
11
3.652945
21
8.987181
0
LINE
8
hole
62
5
10
3.652945
20
8.987181
11
3.659258
21
9.003292
0
LINE
8
hole
62
5
10
3.659258
20
9.003292
11
3.667515
21
9.024354
0
LINE
8
hole
62
5
10
3.667515
20
9.024354
11
3.673831
21
9.040464
0
LINE
8
hole
62
5
10
3.673831
20
9.040464
11
3.682092
21
9.061523
0
LINE
8
hole
62
5
10
3.682092
20
9.061523
11
3.688412
21
9.077632
0
LINE
8
hole
62
5
10
3.688412
20
9.077632
11
3.696677
21
9.098690
0
LINE
8
hole
62
5
10
3.696677
20
9.098690
11
3.703000
21
9.114798
0
LINE
8
hole
62
5
10
3.703000
20
9.114798
11
3.711269
21
9.135855
0
LINE
8
hole
62
5
10
3.711269
20
9.135855
11
3.717594
21
9.151962
0
LINE
8
hole
62
5
10
3.717594
20
9.151962
11
3.725866
21
9.173017
0
LINE
8
hole
62
5
10
3.725866
20
9.173017
11
3.732194
21
9.189123
0
LINE
8
hole
62
5
10
3.732194
20
9.189123
11
3.740693
21
9.210750
0
LINE
8
hole
62
5
10
3.740693
20
9.210750
11
3.747195
21
9.227291
0
LINE
8
hole
62
5
10
3.747195
20
9.227291
11
3.755247
21
9.247774
0
LINE
8
hole
62
5
10
3.755247
20
9.247774
11
3.761407
21
9.263441
0
LINE
8
hole
62
5
10
3.761407
20
9.263441
11
3.769741
21
9.284631
0
LINE
8
hole
62
5
10
3.769741
20
9.284631
11
3.776116
21
9.300840
0
LINE
8
hole
62
5
10
3.776116
20
9.300840
11
3.784343
21
9.321754
0
LINE
8
hole
62
5
10
3.784343
20
9.321754
11
3.790637
21
9.337751
0
LINE
8
hole
62
5
10
3.790637
20
9.337751
11
3.798921
21
9.358802
0
LINE
8
hole
62
5
10
3.798921
20
9.358802
11
3.805258
21
9.374904
0
LINE
8
hole
62
5
10
3.805258
20
9.374904
11
3.813543
21
9.395954
0
LINE
8
hole
62
5
10
3.813543
20
9.395954
11
3.819882
21
9.412055
0
LINE
8
hole
62
5
10
3.819882
20
9.412055
11
3.827793
21
9.432152
0
LINE
8
hole
62
5
10
3.827793
20
9.432152
11
3.833846
21
9.447523
0
LINE
8
hole
62
5
10
3.833846
20
9.447523
11
3.842511
21
9.469525
0
LINE
8
hole
62
5
10
3.842511
20
9.469525
11
3.849139
21
9.486355
0
LINE
8
hole
62
5
10
3.849139
20
9.486355
11
3.857677
21
9.508033
0
LINE
8
hole
62
5
10
3.857677
20
9.508033
11
3.864209
21
9.524614
0
LINE
8
hole
62
5
10
3.864209
20
9.524614
11
3.872254
21
9.545033
0
LINE
8
hole
62
5
10
3.872254
20
9.545033
11
3.878407
21
9.560651
0
LINE
8
hole
62
5
10
3.878407
20
9.560651
11
3.886701
21
9.581698
0
LINE
8
hole
62
5
10
3.886701
20
9.581698
11
3.893045
21
9.597796
0
LINE
8
hole
62
5
10
3.893045
20
9.597796
11
3.901340
21
9.618843
0
LINE
8
hole
62
5
10
3.901340
20
9.618843
11
3.907686
21
9.634943
0
LINE
8
hole
62
5
10
3.907686
20
9.634943
11
3.915982
21
9.655988
0
LINE
8
hole
62
5
10
3.915982
20
9.655988
11
3.922328
21
9.672086
0
LINE
8
hole
62
5
10
3.922328
20
9.672086
11
3.930857
21
9.693721
0
LINE
8
hole
62
5
10
3.930857
20
9.693721
11
3.937382
21
9.710271
0
LINE
8
hole
62
5
10
3.937382
20
9.710271
11
3.945448
21
9.730727
0
LINE
8
hole
62
5
10
3.945448
20
9.730727
11
3.951618
21
9.746373
0
LINE
8
hole
62
5
10
3.951618
20
9.746373
11
3.959919
21
9.767417
0
LINE
8
hole
62
5
10
3.959919
20
9.767417
11
3.966269
21
9.783515
0
LINE
8
hole
62
5
10
3.966269
20
9.783515
11
3.974569
21
9.804559
0
LINE
8
hole
62
5
10
3.974569
20
9.804559
11
3.980918
21
9.820656
0
LINE
8
hole
62
5
10
3.980918
20
9.820656
11
3.989213
21
9.841703
0
LINE
8
hole
62
5
10
3.989213
20
9.841703
11
3.995557
21
9.857802
0
LINE
8
hole
62
5
10
3.995557
20
9.857802
11
4.003856
21
9.878847
0
LINE
8
hole
62
5
10
4.003856
20
9.878847
11
4.010205
21
9.894944
0
LINE
8
hole
62
5
10
4.010205
20
9.894944
11
4.018529
21
9.915979
0
LINE
8
hole
62
5
10
4.018529
20
9.915979
11
4.024898
21
9.932068
0
LINE
8
hole
62
5
10
4.024898
20
9.932068
11
4.033213
21
9.953106
0
LINE
8
hole
62
5
10
4.033213
20
9.953106
11
4.039576
21
9.969198
0
LINE
8
hole
62
5
10
4.039576
20
9.969198
11
4.047806
21
9.990270
0
LINE
8
hole
62
5
10
4.047806
20
9.990270
11
4.054094
21
10.006390
0
LINE
8
hole
62
5
10
4.054094
20
10.006390
11
4.062339
21
10.027455
0
LINE
8
hole
62
5
10
4.062339
20
10.027455
11
4.068639
21
10.043571
0
LINE
8
hole
62
5
10
4.068639
20
10.043571
11
4.077363
21
10.064867
0
LINE
8
hole
62
5
10
4.077363
20
10.064867
11
4.084065
21
10.081144
0
LINE
8
hole
62
5
10
4.084065
20
10.081144
11
4.093059
21
10.101452
0
LINE
8
hole
62
5
10
4.093059
20
10.101452
11
4.100028
21
10.116947
0
LINE
8
hole
62
5
10
4.100028
20
10.116947
11
4.109862
21
10.137148
0
LINE
8
hole
62
5
10
4.109862
20
10.137148
11
4.117550
21
10.152520
0
LINE
8
hole
62
5
10
4.117550
20
10.152520
11
4.128247
21
10.172367
0
LINE
8
hole
62
5
10
4.128247
20
10.172367
11
4.136679
21
10.187413
0
LINE
8
hole
62
5
10
4.136679
20
10.187413
11
4.148050
21
10.206637
0
LINE
8
hole
62
5
10
4.148050
20
10.206637
11
4.157073
21
10.221148
0
LINE
8
hole
62
5
10
4.157073
20
10.221148
11
4.169090
21
10.239795
0
LINE
8
hole
62
5
10
4.169090
20
10.239795
11
4.178677
21
10.253803
0
LINE
8
hole
62
5
10
4.178677
20
10.253803
11
4.191380
21
10.271927
0
LINE
8
hole
62
5
10
4.191380
20
10.271927
11
4.201558
21
10.285467
0
LINE
8
hole
62
5
10
4.201558
20
10.285467
11
4.214664
21
10.302686
0
LINE
8
hole
62
5
10
4.214664
20
10.302686
11
4.225202
21
10.315466
0
LINE
8
hole
62
5
10
4.225202
20
10.315466
11
4.239162
21
10.332392
0
LINE
8
hole
62
5
10
4.239162
20
10.332392
11
4.250422
21
10.344858
0
LINE
8
hole
62
5
10
4.250422
20
10.344858
11
4.264267
21
10.360387
0
LINE
8
hole
62
5
10
4.264267
20
10.360387
11
4.275464
21
10.371724
0
LINE
8
hole
62
5
10
4.275464
20
10.371724
11
4.289978
21
10.386779
0
LINE
8
hole
62
5
10
4.289978
20
10.386779
11
4.301739
21
10.397658
0
LINE
8
hole
62
5
10
4.301739
20
10.397658
11
4.316615
21
10.411879
0
LINE
8
hole
62
5
10
4.316615
20
10.411879
11
4.328683
21
10.422036
0
LINE
8
hole
62
5
10
4.328683
20
10.422036
11
4.343787
21
10.435423
0
LINE
8
hole
62
5
10
4.343787
20
10.435423
11
4.356059
21
10.444853
0
LINE
8
hole
62
5
10
4.356059
20
10.444853
11
4.371474
21
10.457647
0
LINE
8
hole
62
5
10
4.371474
20
10.457647
11
4.384034
21
10.466508
0
LINE
8
hole
62
5
10
4.384034
20
10.466508
11
4.399101
21
10.477976
0
LINE
8
hole
62
5
10
4.399101
20
10.477976
11
4.411372
21
10.485768
0
LINE
8
hole
62
5
10
4.411372
20
10.485768
11
4.427344
21
10.496372
0
LINE
8
hole
62
5
10
4.427344
20
10.496372
11
4.440267
21
10.503415
0
LINE
8
hole
62
5
10
4.440267
20
10.503415
11
4.457380
21
10.512455
0
LINE
8
hole
62
5
10
4.457380
20
10.512455
11
4.471051
21
10.518279
0
LINE
8
hole
62
5
10
4.471051
20
10.518279
11
4.489845
21
10.524958
0
LINE
8
hole
62
5
10
4.489845
20
10.524958
11
4.504605
21
10.529033
0
LINE
8
hole
62
5
10
4.504605
20
10.529033
11
4.525107
21
10.532853
0
LINE
8
hole
62
5
10
4.525107
20
10.532853
11
4.540960
21
10.534867
0
LINE
8
hole
62
5
10
4.540960
20
10.534867
11
4.562488
21
10.535724
0
LINE
8
hole
62
5
10
4.562488
20
10.535724
11
4.578980
21
10.535634
0
LINE
8
hole
62
5
10
4.578980
20
10.535634
11
4.600921
21
10.533638
0
LINE
8
hole
62
5
10
4.600921
20
10.533638
11
4.617656
21
10.531574
0
LINE
8
hole
62
5
10
4.617656
20
10.531574
11
4.639570
21
10.527059
0
LINE
8
hole
62
5
10
4.639570
20
10.527059
11
4.656282
21
10.523316
0
LINE
8
hole
62
5
10
4.656282
20
10.523316
11
4.677914
21
10.516848
0
LINE
8
hole
62
5
10
4.677914
20
10.516848
11
4.694445
21
10.511838
0
LINE
8
hole
62
5
10
4.694445
20
10.511838
11
4.716111
21
10.504608
0
LINE
8
hole
62
5
10
4.716111
20
10.504608
11
4.732689
21
10.499110
0
LINE
8
hole
62
5
10
4.732689
20
10.499110
11
4.754035
21
10.492086
0
LINE
8
hole
62
5
10
4.754035
20
10.492086
11
4.770364
21
10.486715
0
LINE
8
hole
62
5
10
4.770364
20
10.486715
11
4.791391
21
10.479328
0
LINE
8
hole
62
5
10
4.791391
20
10.479328
11
4.807456
21
10.473617
0
LINE
8
hole
62
5
10
4.807456
20
10.473617
11
4.828690
21
10.465116
0
LINE
8
hole
62
5
10
4.828690
20
10.465116
11
4.844880
21
10.458479
0
LINE
8
hole
62
5
10
4.844880
20
10.458479
11
4.865481
21
10.449408
0
LINE
8
hole
62
5
10
4.865481
20
10.449408
11
4.881138
21
10.442243
0
LINE
8
hole
62
5
10
4.881138
20
10.442243
11
4.901376
21
10.432651
0
LINE
8
hole
62
5
10
4.901376
20
10.432651
11
4.916696
21
10.424985
0
LINE
8
hole
62
5
10
4.916696
20
10.424985
11
4.936068
21
10.414099
0
LINE
8
hole
62
5
10
4.936068
20
10.414099
11
4.950698
21
10.405435
0
LINE
8
hole
62
5
10
4.950698
20
10.405435
11
4.968840
21
10.392122
0
LINE
8
hole
62
5
10
4.968840
20
10.392122
11
4.982553
21
10.381707
0
LINE
8
hole
62
5
10
4.982553
20
10.381707
11
4.998830
21
10.365776
0
LINE
8
hole
62
5
10
3.269877
20
4.844171
11
3.284672
21
4.828873
0
LINE
8
hole
62
5
10
3.284672
20
4.828873
11
3.301644
21
4.811879
0
LINE
8
hole
62
5
10
3.301644
20
4.811879
11
3.315641
21
4.795847
0
LINE
8
hole
62
5
10
3.315641
20
4.795847
11
3.331726
21
4.778008
0
LINE
8
hole
62
5
10
3.331726
20
4.778008
11
3.344905
21
4.761298
0
LINE
8
hole
62
5
10
3.344905
20
4.761298
11
3.360081
21
4.742681
0
LINE
8
hole
62
5
10
3.360081
20
4.742681
11
3.372982
21
4.724557
0
LINE
8
hole
62
5
10
3.372982
20
4.724557
11
3.387872
21
4.704341
0
LINE
8
hole
62
5
10
3.387872
20
4.704341
11
3.398891
21
4.687275
0
LINE
8
hole
62
5
10
3.398891
20
4.687275
11
3.411636
21
4.668217
0
LINE
8
hole
62
5
10
3.411636
20
4.668217
11
3.422435
21
4.649874
0
LINE
8
hole
62
5
10
3.422435
20
4.649874
11
3.434948
21
4.629367
0
LINE
8
hole
62
5
10
3.434948
20
4.629367
11
3.445040
21
4.610616
0
LINE
8
hole
62
5
10
3.445040
20
4.610616
11
3.456746
21
4.589626
0
LINE
8
hole
62
5
10
3.456746
20
4.589626
11
3.466205
21
4.570533
0
LINE
8
hole
62
5
10
3.466205
20
4.570533
11
3.477176
21
4.549131
0
LINE
8
hole
62
5
10
3.477176
20
4.549131
11
3.486109
21
4.529769
0
LINE
8
hole
62
5
10
3.486109
20
4.529769
11
3.496457
21
4.508039
0
LINE
8
hole
62
5
10
3.496457
20
4.508039
11
3.505011
21
4.488488
0
LINE
8
hole
62
5
10
3.505011
20
4.488488
11
3.514891
21
4.466519
0
LINE
8
hole
62
5
10
3.514891
20
4.466519
11
3.523322
21
4.446891
0
LINE
8
hole
62
5
10
3.523322
20
4.446891
11
3.532994
21
4.424800
0
LINE
8
hole
62
5
10
3.532994
20
4.424800
11
3.541569
21
4.405224
0
LINE
8
hole
62
5
10
3.541569
20
4.405224
11
3.551308
21
4.383149
0
LINE
8
hole
62
5
10
3.551308
20
4.383149
11
3.560009
21
4.364354
0
LINE
8
hole
62
5
10
3.560009
20
4.364354
11
3.569773
21
4.343107
0
LINE
8
hole
62
5
10
3.569773
20
4.343107
11
3.579659
21
4.323450
0
LINE
8
hole
62
5
10
3.579659
20
4.323450
11
3.590613
21
4.301157
0
LINE
8
hole
62
5
10
3.590613
20
4.301157
11
3.600742
21
4.282421
0
LINE
8
hole
62
5
10
3.600742
20
4.282421
11
3.611861
21
4.261108
0
LINE
8
hole
62
5
10
3.611861
20
4.261108
11
3.622363
21
4.242633
0
LINE
8
hole
62
5
10
3.622363
20
4.242633
11
3.633824
21
4.221568
0
LINE
8
hole
62
5
10
3.633824
20
4.221568
11
3.644623
21
4.203312
0
LINE
8
hole
62
5
10
3.644623
20
4.203312
11
3.656366
21
4.182457
0
LINE
8
hole
62
5
10
3.656366
20
4.182457
11
3.660028
21
4.176473
0
LINE
8
hole
62
5
10
3.660028
20
4.176473
11
3.678778
21
4.157723
0
LINE
8
hole
62
5
10
3.678778
20
4.157723
11
4.152429
21
4.157723
0
LINE
8
hole
62
5
10
4.152429
20
4.157723
11
4.172706
21
4.171272
0
LINE
8
hole
62
5
10
4.172706
20
4.171272
11
4.196623
21
4.176029
0
LINE
8
hole
62
5
10
4.196623
20
4.176029
11
4.220541
21
4.171272
0
LINE
8
hole
62
5
10
4.220541
20
4.171272
11
4.240818
21
4.157723
0
LINE
8
hole
62
5
10
4.240818
20
4.157723
11
4.254366
21
4.137447
0
LINE
8
hole
62
5
10
4.254366
20
4.137447
11
4.259123
21
4.113529
0
LINE
8
hole
62
5
10
4.259123
20
4.113529
11
4.254366
21
4.089611
0
LINE
8
hole
62
5
10
4.254366
20
4.089611
11
4.240818
21
4.069335
0
LINE
8
hole
62
5
10
4.240818
20
4.069335
11
4.240818
21
3.871112
0
LINE
8
hole
62
5
10
4.240818
20
3.871112
11
4.254366
21
3.850835
0
LINE
8
hole
62
5
10
4.254366
20
3.850835
11
4.259123
21
3.826917
0
LINE
8
hole
62
5
10
4.259123
20
3.826917
11
4.254366
21
3.803000
0
LINE
8
hole
62
5
10
4.254366
20
3.803000
11
4.240818
21
3.782723
0
LINE
8
hole
62
5
10
4.240818
20
3.782723
11
4.220541
21
3.769175
0
LINE
8
hole
62
5
10
4.220541
20
3.769175
11
4.196623
21
3.764417
0
LINE
8
hole
62
5
10
4.196623
20
3.764417
11
4.172706
21
3.769175
0
LINE
8
hole
62
5
10
4.172706
20
3.769175
11
4.152429
21
3.782723
0
LINE
8
hole
62
5
10
4.152429
20
3.782723
11
3.974191
21
3.782723
0
LINE
8
hole
62
5
10
3.974191
20
3.782723
11
3.955441
21
3.763973
0
LINE
8
hole
62
5
10
3.955441
20
3.763973
11
3.955441
21
3.763973
0
LINE
8
hole
62
5
10
3.955441
20
3.763973
11
3.956534
21
3.762783
0
LINE
8
hole
62
5
10
3.956534
20
3.762783
11
3.972297
21
3.744812
0
LINE
8
hole
62
5
10
3.972297
20
3.744812
11
3.986900
21
3.729463
0
LINE
8
hole
62
5
10
3.986900
20
3.729463
11
4.002972
21
3.711770
0
LINE
8
hole
62
5
10
4.002972
20
3.711770
11
4.017813
21
3.696651
0
LINE
8
hole
62
5
10
4.017813
20
3.696651
11
4.034159
21
3.679212
0
LINE
8
hole
62
5
10
4.034159
20
3.679212
11
4.049209
21
3.664305
0
LINE
8
hole
62
5
10
4.049209
20
3.664305
11
4.065797
21
3.647099
0
LINE
8
hole
62
5
10
4.065797
20
3.647099
11
4.081038
21
3.632376
0
LINE
8
hole
62
5
10
4.081038
20
3.632376
11
4.097848
21
3.615375
0
LINE
8
hole
62
5
10
4.097848
20
3.615375
11
4.112773
21
3.601267
0
LINE
8
hole
62
5
10
4.112773
20
3.601267
11
4.129245
21
3.584969
0
LINE
8
hole
62
5
10
4.129245
20
3.584969
11
4.145260
21
3.570114
0
LINE
8
hole
62
5
10
4.145260
20
3.570114
11
4.162946
21
3.552949
0
LINE
8
hole
62
5
10
4.162946
20
3.552949
11
4.178602
21
3.538661
0
LINE
8
hole
62
5
10
4.178602
20
3.538661
11
4.195900
21
3.522148
0
LINE
8
hole
62
5
10
4.195900
20
3.522148
11
4.211648
21
3.507956
0
LINE
8
hole
62
5
10
4.211648
20
3.507956
11
4.229058
21
3.491553
0
LINE
8
hole
62
5
10
4.229058
20
3.491553
11
4.244865
21
3.477416
0
LINE
8
hole
62
5
10
4.244865
20
3.477416
11
4.262349
21
3.461081
0
LINE
8
hole
62
5
10
4.262349
20
3.461081
11
4.278182
21
3.446957
0
LINE
8
hole
62
5
10
4.278182
20
3.446957
11
4.295708
21
3.430646
0
LINE
8
hole
62
5
10
4.295708
20
3.430646
11
4.311585
21
3.416561
0
LINE
8
hole
62
5
10
4.311585
20
3.416561
11
4.329168
21
3.400302
0
LINE
8
hole
62
5
10
4.329168
20
3.400302
11
4.345121
21
3.386300
0
LINE
8
hole
62
5
10
4.345121
20
3.386300
11
4.362793
21
3.370136
0
LINE
8
hole
62
5
10
4.362793
20
3.370136
11
4.378590
21
3.355919
0
LINE
8
hole
62
5
10
4.378590
20
3.355919
11
4.396126
21
3.339556
0
LINE
8
hole
62
5
10
4.396126
20
3.339556
11
4.411321
21
3.324592
0
LINE
8
hole
62
5
10
4.411321
20
3.324592
11
4.428283
21
3.307507
0
LINE
8
hole
62
5
10
4.428283
20
3.307507
11
4.442569
21
3.291608
0
LINE
8
hole
62
5
10
4.442569
20
3.291608
11
4.458653
21
3.273621
0
LINE
8
hole
62
5
10
4.458653
20
3.273621
11
4.471929
21
3.256892
0
LINE
8
hole
62
5
10
4.471929
20
3.256892
11
4.487038
21
3.238103
0
LINE
8
hole
62
5
10
4.487038
20
3.238103
11
4.499772
21
3.219852
0
LINE
8
hole
62
5
10
4.499772
20
3.219852
11
4.514461
21
3.199476
0
LINE
8
hole
62
5
10
4.514461
20
3.199476
11
4.525023
21
3.182264
0
LINE
8
hole
62
5
10
4.525023
20
3.182264
11
4.537408
21
3.163142
0
LINE
8
hole
62
5
10
4.537408
20
3.163142
11
4.547307
21
3.144651
0
LINE
8
hole
62
5
10
4.547307
20
3.144651
11
4.559154
21
3.124187
0
LINE
8
hole
62
5
10
4.559154
20
3.124187
11
4.567694
21
3.105294
0
LINE
8
hole
62
5
10
4.567694
20
3.105294
11
4.578219
21
3.084439
0
LINE
8
hole
62
5
10
4.578219
20
3.084439
11
4.585405
21
3.065309
0
LINE
8
hole
62
5
10
4.585405
20
3.065309
11
4.594615
21
3.044234
0
LINE
8
hole
62
5
10
4.594615
20
3.044234
11
4.600931
21
3.025132
0
LINE
8
hole
62
5
10
4.600931
20
3.025132
11
4.609334
21
3.004141
0
LINE
8
hole
62
5
10
4.609334
20
3.004141
11
4.615152
21
2.985144
0
LINE
8
hole
62
5
10
4.615152
20
2.985144
11
4.623115
21
2.964306
0
LINE
8
hole
62
5
10
4.623115
20
2.964306
11
4.628210
21
2.945111
0
LINE
8
hole
62
5
10
4.628210
20
2.945111
11
4.635383
21
2.923997
0
LINE
8
hole
62
5
10
4.635383
20
2.923997
11
4.639300
21
2.904282
0
LINE
8
hole
62
5
10
4.639300
20
2.904282
11
4.645071
21
2.882441
0
LINE
8
hole
62
5
10
4.645071
20
2.882441
11
4.646827
21
2.862833
0
LINE
8
hole
62
5
10
4.646827
20
2.862833
11
4.649972
21
2.840920
0
LINE
8
hole
62
5
10
4.649972
20
2.840920
11
4.648663
21
2.819602
0
LINE
8
hole
62
5
10
4.648663
20
2.819602
11
4.648205
21
2.795555
0
LINE
8
hole
62
5
10
4.648205
20
2.795555
11
4.643754
21
2.774998
0
LINE
8
hole
62
5
10
4.643754
20
2.774998
11
4.639471
21
2.751669
0
LINE
8
hole
62
5
10
4.639471
20
2.751669
11
4.632122
21
2.731783
0
LINE
8
hole
62
5
10
4.632122
20
2.731783
11
4.624320
21
2.709171
0
LINE
8
hole
62
5
10
4.624320
20
2.709171
11
4.614232
21
2.690420
0
LINE
8
hole
62
5
10
4.614232
20
2.690420
11
4.603100
21
2.669124
0
LINE
8
hole
62
5
10
4.603100
20
2.669124
11
4.590416
21
2.651936
0
LINE
8
hole
62
5
10
4.590416
20
2.651936
11
4.576140
21
2.632502
0
LINE
8
hole
62
5
10
4.576140
20
2.632502
11
4.561150
21
2.617312
0
LINE
8
hole
62
5
10
4.561150
20
2.617312
11
4.544100
21
2.600294
0
LINE
8
hole
62
5
10
4.544100
20
2.600294
11
4.527174
21
2.587509
0
LINE
8
hole
62
5
10
4.527174
20
2.587509
11
4.507823
21
2.573435
0
LINE
8
hole
62
5
10
4.507823
20
2.573435
11
4.489393
21
2.563206
0
LINE
8
hole
62
5
10
4.489393
20
2.563206
11
4.468299
21
2.552248
0
LINE
8
hole
62
5
10
4.468299
20
2.552248
11
4.448841
21
2.544519
0
LINE
8
hole
62
5
10
4.448841
20
2.544519
11
4.426620
21
2.536566
0
LINE
8
hole
62
5
10
4.426620
20
2.536566
11
4.406469
21
2.530944
0
LINE
8
hole
62
5
10
4.406469
20
2.530944
11
4.383539
21
2.525428
0
LINE
8
hole
62
5
10
4.383539
20
2.525428
11
4.362890
21
2.521202
0
LINE
8
hole
62
5
10
4.362890
20
2.521202
11
4.339469
21
2.517122
0
LINE
8
hole
62
5
10
4.339469
20
2.517122
11
4.317511
21
2.513885
0
LINE
8
hole
62
5
10
4.317511
20
2.513885
11
4.292667
21
2.510697
0
LINE
8
hole
62
5
10
4.292667
20
2.510697
11
4.272361
21
2.509043
0
LINE
8
hole
62
5
10
4.272361
20
2.509043
11
4.249421
21
2.507395
0
LINE
8
hole
62
5
10
4.249421
20
2.507395
11
4.228048
21
2.506906
0
LINE
8
hole
62
5
10
4.228048
20
2.506906
11
4.203916
21
2.506424
0
LINE
8
hole
62
5
10
4.203916
20
2.506424
11
4.182538
21
2.506463
0
LINE
8
hole
62
5
10
4.182538
20
2.506463
11
4.158405
21
2.506508
0
LINE
8
hole
62
5
10
4.158405
20
2.506508
11
4.137029
21
2.506517
0
LINE
8
hole
62
5
10
4.137029
20
2.506517
11
4.112897
21
2.506527
0
LINE
8
hole
62
5
10
4.112897
20
2.506527
11
4.091520
21
2.506504
0
LINE
8
hole
62
5
10
4.091520
20
2.506504
11
4.067386
21
2.506479
0
LINE
8
hole
62
5
10
4.067386
20
2.506479
11
4.046008
21
2.506474
0
LINE
8
hole
62
5
10
4.046008
20
2.506474
11
4.021874
21
2.506470
0
LINE
8
hole
62
5
10
4.021874
20
2.506470
11
4.000519
21
2.506476
0
LINE
8
hole
62
5
10
4.000519
20
2.506476
11
3.976410
21
2.506483
0
LINE
8
hole
62
5
10
3.976410
20
2.506483
11
3.955010
21
2.506484
0
LINE
8
hole
62
5
10
3.955010
20
2.506484
11
3.930850
21
2.506486
0
LINE
8
hole
62
5
10
3.930850
20
2.506486
11
3.910156
21
2.506485
0
LINE
8
hole
62
5
10
3.910156
20
2.506485
11
3.886794
21
2.506483
0
LINE
8
hole
62
5
10
3.886794
20
2.506483
11
3.864733
21
2.506482
0
LINE
8
hole
62
5
10
3.864733
20
2.506482
11
3.839827
21
2.506482
0
LINE
8
hole
62
5
10
3.839827
20
2.506482
11
3.818450
21
2.506482
0
LINE
8
hole
62
5
10
3.818450
20
2.506482
11
3.794316
21
2.506482
0
LINE
8
hole
62
5
10
3.794316
20
2.506482
11
3.772938
21
2.506483
0
LINE
8
hole
62
5
10
3.772938
20
2.506483
11
3.748804
21
2.506483
0
LINE
8
hole
62
5
10
3.748804
20
2.506483
11
3.727427
21
2.506483
0
LINE
8
hole
62
5
10
3.727427
20
2.506483
11
3.703292
21
2.506483
0
LINE
8
hole
62
5
10
3.703292
20
2.506483
11
3.681915
21
2.506483
0
LINE
8
hole
62
5
10
3.681915
20
2.506483
11
3.657781
21
2.506483
0
LINE
8
hole
62
5
10
3.657781
20
2.506483
11
3.636403
21
2.506483
0
LINE
8
hole
62
5
10
3.636403
20
2.506483
11
3.612269
21
2.506483
0
LINE
8
hole
62
5
10
3.612269
20
2.506483
11
3.590892
21
2.506483
0
LINE
8
hole
62
5
10
3.590892
20
2.506483
11
3.566757
21
2.506483
0
LINE
8
hole
62
5
10
3.566757
20
2.506483
11
3.545380
21
2.506483
0
LINE
8
hole
62
5
10
3.545380
20
2.506483
11
3.521246
21
2.506483
0
LINE
8
hole
62
5
10
3.521246
20
2.506483
11
3.499868
21
2.506483
0
LINE
8
hole
62
5
10
3.499868
20
2.506483
11
3.475734
21
2.506483
0
LINE
8
hole
62
5
10
3.475734
20
2.506483
11
3.454357
21
2.506483
0
LINE
8
hole
62
5
10
3.454357
20
2.506483
11
3.430223
21
2.506483
0
LINE
8
hole
62
5
10
3.430223
20
2.506483
11
3.408845
21
2.506483
0
LINE
8
hole
62
5
10
3.408845
20
2.506483
11
3.384711
21
2.506483
0
LINE
8
hole
62
5
10
3.384711
20
2.506483
11
3.362383
21
2.506483
0
LINE
8
hole
62
5
10
3.362383
20
2.506483
11
3.337177
21
2.506483
0
LINE
8
hole
62
5
10
3.337177
20
2.506483
11
3.316749
21
2.506483
0
LINE
8
hole
62
5
10
3.316749
20
2.506483
11
3.293688
21
2.506483
0
LINE
8
hole
62
5
10
3.293688
20
2.506483
11
3.272310
21
2.506483
0
LINE
8
hole
62
5
10
3.272310
20
2.506483
11
3.248176
21
2.506483
0
LINE
8
hole
62
5
10
3.248176
20
2.506483
11
3.226799
21
2.506483
0
LINE
8
hole
62
5
10
3.226799
20
2.506483
11
3.202665
21
2.506483
0
LINE
8
hole
62
5
10
3.202665
20
2.506483
11
3.181287
21
2.506483
0
LINE
8
hole
62
5
10
3.181287
20
2.506483
11
3.157153
21
2.506483
0
LINE
8
hole
62
5
10
3.157153
20
2.506483
11
3.135775
21
2.506483
0
LINE
8
hole
62
5
10
3.135775
20
2.506483
11
3.111641
21
2.506483
0
LINE
8
hole
62
5
10
3.111641
20
2.506483
11
3.090264
21
2.506483
0
LINE
8
hole
62
5
10
3.090264
20
2.506483
11
3.066130
21
2.506483
0
LINE
8
hole
62
5
10
3.066130
20
2.506483
11
3.044771
21
2.506483
0
LINE
8
hole
62
5
10
3.044771
20
2.506483
11
3.020658
21
2.506483
0
LINE
8
hole
62
5
10
3.020658
20
2.506483
11
2.999262
21
2.506483
0
LINE
8
hole
62
5
10
2.999262
20
2.506483
11
2.975106
21
2.506483
0
LINE
8
hole
62
5
10
2.975106
20
2.506483
11
2.954409
21
2.506483
0
LINE
8
hole
62
5
10
2.954409
20
2.506483
11
2.931042
21
2.506483
0
LINE
8
hole
62
5
10
2.931042
20
2.506483
11
2.908985
21
2.506483
0
LINE
8
hole
62
5
10
2.908985
20
2.506483
11
2.884083
21
2.506483
0
LINE
8
hole
62
5
10
2.884083
20
2.506483
11
2.862706
21
2.506483
0
LINE
8
hole
62
5
10
2.862706
20
2.506483
11
2.838571
21
2.506483
0
LINE
8
hole
62
5
10
2.838571
20
2.506483
11
2.817194
21
2.506483
0
LINE
8
hole
62
5
10
2.817194
20
2.506483
11
2.793060
21
2.506483
0
LINE
8
hole
62
5
10
2.793060
20
2.506483
11
2.771682
21
2.506483
0
LINE
8
hole
62
5
10
2.771682
20
2.506483
11
2.747548
21
2.506483
0
LINE
8
hole
62
5
10
2.747548
20
2.506483
11
2.726171
21
2.506483
0
LINE
8
hole
62
5
10
2.726171
20
2.506483
11
2.702037
21
2.506483
0
LINE
8
hole
62
5
10
2.702037
20
2.506483
11
2.680659
21
2.506483
0
LINE
8
hole
62
5
10
2.680659
20
2.506483
11
2.656525
21
2.506483
0
LINE
8
hole
62
5
10
2.656525
20
2.506483
11
2.635148
21
2.506483
0
LINE
8
hole
62
5
10
2.635148
20
2.506483
11
2.611013
21
2.506483
0
LINE
8
hole
62
5
10
2.611013
20
2.506483
11
2.589636
21
2.506483
0
LINE
8
hole
62
5
10
2.589636
20
2.506483
11
2.565502
21
2.506483
0
LINE
8
hole
62
5
10
2.565502
20
2.506483
11
2.544124
21
2.506483
0
LINE
8
hole
62
5
10
2.544124
20
2.506483
11
2.519990
21
2.506483
0
LINE
8
hole
62
5
10
2.519990
20
2.506483
11
2.498613
21
2.506483
0
LINE
8
hole
62
5
10
2.498613
20
2.506483
11
2.474479
21
2.506483
0
LINE
8
hole
62
5
10
2.474479
20
2.506483
11
2.453101
21
2.506483
0
LINE
8
hole
62
5
10
2.453101
20
2.506483
11
2.428967
21
2.506483
0
LINE
8
hole
62
5
10
2.428967
20
2.506483
11
2.406636
21
2.506483
0
LINE
8
hole
62
5
10
2.406636
20
2.506483
11
2.381425
21
2.506483
0
LINE
8
hole
62
5
10
2.381425
20
2.506483
11
2.361001
21
2.506482
0
LINE
8
hole
62
5
10
2.361001
20
2.506482
11
2.337944
21
2.506482
0
LINE
8
hole
62
5
10
2.337944
20
2.506482
11
2.316566
21
2.506482
0
LINE
8
hole
62
5
10
2.316566
20
2.506482
11
2.292432
21
2.506482
0
LINE
8
hole
62
5
10
2.292432
20
2.506482
11
2.271055
21
2.506482
0
LINE
8
hole
62
5
10
2.271055
20
2.506482
11
2.246921
21
2.506483
0
LINE
8
hole
62
5
10
2.246921
20
2.506483
11
2.225543
21
2.506485
0
LINE
8
hole
62
5
10
2.225543
20
2.506485
11
2.201409
21
2.506486
0
LINE
8
hole
62
5
10
2.201409
20
2.506486
11
2.180031
21
2.506484
0
LINE
8
hole
62
5
10
2.180031
20
2.506484
11
2.155897
21
2.506481
0
LINE
8
hole
62
5
10
2.155897
20
2.506481
11
2.134520
21
2.506475
0
LINE
8
hole
62
5
10
2.134520
20
2.506475
11
2.110386
21
2.506468
0
LINE
8
hole
62
5
10
2.110386
20
2.506468
11
2.089024
21
2.506476
0
LINE
8
hole
62
5
10
2.089024
20
2.506476
11
2.064907
21
2.506483
0
LINE
8
hole
62
5
10
2.064907
20
2.506483
11
2.043513
21
2.506508
0
LINE
8
hole
62
5
10
2.043513
20
2.506508
11
2.019361
21
2.506532
0
LINE
8
hole
62
5
10
2.019361
20
2.506532
11
1.998661
21
2.506516
0
LINE
8
hole
62
5
10
1.998661
20
2.506516
11
1.975292
21
2.506501
0
LINE
8
hole
62
5
10
1.975292
20
2.506501
11
1.953237
21
2.506443
0
LINE
8
hole
62
5
10
1.953237
20
2.506443
11
1.928339
21
2.506387
0
LINE
8
hole
62
5
10
1.928339
20
2.506387
11
1.906970
21
2.506750
0
LINE
8
hole
62
5
10
1.906970
20
2.506750
11
1.882844
21
2.507107
0
LINE
8
hole
62
5
10
1.882844
20
2.507107
11
1.861537
21
2.508438
0
LINE
8
hole
62
5
10
1.861537
20
2.508438
11
1.837470
21
2.509748
0
LINE
8
hole
62
5
10
1.837470
20
2.509748
11
1.816313
21
2.512185
0
LINE
8
hole
62
5
10
1.816313
20
2.512185
11
1.792397
21
2.514581
0
LINE
8
hole
62
5
10
1.792397
20
2.514581
11
1.771478
21
2.518075
0
LINE
8
hole
62
5
10
1.771478
20
2.518075
11
1.747795
21
2.521513
0
LINE
8
hole
62
5
10
1.747795
20
2.521513
11
1.727193
21
2.526030
0
LINE
8
hole
62
5
10
1.727193
20
2.526030
11
1.703821
21
2.530472
0
LINE
8
hole
62
5
10
1.703821
20
2.530472
11
1.683614
21
2.535985
0
LINE
8
hole
62
5
10
1.683614
20
2.535985
11
1.660631
21
2.541401
0
LINE
8
hole
62
5
10
1.660631
20
2.541401
11
1.640904
21
2.547894
0
LINE
8
hole
62
5
10
1.640904
20
2.547894
11
1.618393
21
2.554279
0
LINE
8
hole
62
5
10
1.618393
20
2.554279
11
1.599229
21
2.561747
0
LINE
8
hole
62
5
10
1.599229
20
2.561747
11
1.577275
21
2.569109
0
LINE
8
hole
62
5
10
1.577275
20
2.569109
11
1.558733
21
2.577448
0
LINE
8
hole
62
5
10
1.558733
20
2.577448
11
1.537391
21
2.585659
0
LINE
8
hole
62
5
10
1.537391
20
2.585659
11
1.519514
21
2.594674
0
LINE
8
hole
62
5
10
1.519514
20
2.594674
11
1.498814
21
2.603488
0
LINE
8
hole
62
5
10
1.498814
20
2.603488
11
1.480958
21
2.613908
0
LINE
8
hole
62
5
10
1.480958
20
2.613908
11
1.460142
21
2.624173
0
LINE
8
hole
62
5
10
1.460142
20
2.624173
11
1.444729
21
2.635374
0
LINE
8
hole
62
5
10
1.444729
20
2.635374
11
1.426646
21
2.646807
0
LINE
8
hole
62
5
10
1.426646
20
2.646807
11
1.411714
21
2.660708
0
LINE
8
hole
62
5
10
1.411714
20
2.660708
11
1.394108
21
2.675435
0
LINE
8
hole
62
5
10
1.394108
20
2.675435
11
1.380828
21
2.691405
0
LINE
8
hole
62
5
10
1.380828
20
2.691405
11
1.365142
21
2.708767
0
LINE
8
hole
62
5
10
1.365142
20
2.708767
11
1.353893
21
2.726555
0
LINE
8
hole
62
5
10
1.353893
20
2.726555
11
1.340634
21
2.746236
0
LINE
8
hole
62
5
10
1.340634
20
2.746236
11
1.331657
21
2.765511
0
LINE
8
hole
62
5
10
1.331657
20
2.765511
11
1.321146
21
2.787083
0
LINE
8
hole
62
5
10
1.321146
20
2.787083
11
1.314678
21
2.807463
0
LINE
8
hole
62
5
10
1.314678
20
2.807463
11
1.307228
21
2.830429
0
LINE
8
hole
62
5
10
1.307228
20
2.830429
11
1.303540
21
2.851410
0
LINE
8
hole
62
5
10
1.303540
20
2.851410
11
1.299518
21
2.875109
0
LINE
8
hole
62
5
10
1.299518
20
2.875109
11
1.298722
21
2.896266
0
LINE
8
hole
62
5
10
1.298722
20
2.896266
11
1.298275
21
2.920134
0
LINE
8
hole
62
5
10
1.298275
20
2.920134
11
1.299767
21
2.940548
0
LINE
8
hole
62
5
10
1.299767
20
2.940548
11
1.302058
21
2.963525
0
LINE
8
hole
62
5
10
1.302058
20
2.963525
11
1.305436
21
2.985043
0
LINE
8
hole
62
5
10
1.305436
20
2.985043
11
1.309907
21
3.009204
0
LINE
8
hole
62
5
10
1.309907
20
3.009204
11
1.314550
21
3.029858
0
LINE
8
hole
62
5
10
1.314550
20
3.029858
11
1.320335
21
3.053031
0
LINE
8
hole
62
5
10
1.320335
20
3.053031
11
1.326044
21
3.073526
0
LINE
8
hole
62
5
10
1.326044
20
3.073526
11
1.332862
21
3.096550
0
LINE
8
hole
62
5
10
1.332862
20
3.096550
11
1.339520
21
3.116833
0
LINE
8
hole
62
5
10
1.339520
20
3.116833
11
1.347245
21
3.139660
0
LINE
8
hole
62
5
10
1.347245
20
3.139660
11
1.354782
21
3.159656
0
LINE
8
hole
62
5
10
1.354782
20
3.159656
11
1.363379
21
3.182197
0
LINE
8
hole
62
5
10
1.363379
20
3.182197
11
1.371448
21
3.201994
0
LINE
8
hole
62
5
10
1.371448
20
3.201994
11
1.380580
21
3.224334
0
LINE
8
hole
62
5
10
1.380580
20
3.224334
11
1.388696
21
3.244110
0
LINE
8
hole
62
5
10
1.388696
20
3.244110
11
1.397879
21
3.266426
0
LINE
8
hole
62
5
10
1.397879
20
3.266426
11
1.405898
21
3.286241
0
LINE
8
hole
62
5
10
1.405898
20
3.286241
11
1.414988
21
3.308595
0
LINE
8
hole
62
5
10
1.414988
20
3.308595
11
1.423020
21
3.328405
0
LINE
8
hole
62
5
10
1.423020
20
3.328405
11
1.432128
21
3.350753
0
LINE
8
hole
62
5
10
1.432128
20
3.350753
11
1.440218
21
3.370540
0
LINE
8
hole
62
5
10
1.440218
20
3.370540
11
1.449389
21
3.392862
0
LINE
8
hole
62
5
10
1.449389
20
3.392862
11
1.457513
21
3.412635
0
LINE
8
hole
62
5
10
1.457513
20
3.412635
11
1.466723
21
3.434941
0
LINE
8
hole
62
5
10
1.466723
20
3.434941
11
1.475235
21
3.455593
0
LINE
8
hole
62
5
10
1.475235
20
3.455593
11
1.484888
21
3.478891
0
LINE
8
hole
62
5
10
1.484888
20
3.478891
11
1.492697
21
3.497753
0
LINE
8
hole
62
5
10
1.492697
20
3.497753
11
1.501554
21
3.519029
0
LINE
8
hole
62
5
10
1.501554
20
3.519029
11
1.509769
21
3.538764
0
LINE
8
hole
62
5
10
1.509769
20
3.538764
11
1.519087
21
3.561025
0
LINE
8
hole
62
5
10
1.519087
20
3.561025
11
1.527341
21
3.580743
0
LINE
8
hole
62
5
10
1.527341
20
3.580743
11
1.536705
21
3.602985
0
LINE
8
hole
62
5
10
1.536705
20
3.602985
11
1.545000
21
3.622685
0
LINE
8
hole
62
5
10
1.545000
20
3.622685
11
1.554412
21
3.644906
0
LINE
8
hole
62
5
10
1.554412
20
3.644906
11
1.562755
21
3.664587
0
LINE
8
hole
62
5
10
1.562755
20
3.664587
11
1.572222
21
3.686784
0
LINE
8
hole
62
5
10
1.572222
20
3.686784
11
1.580620
21
3.706441
0
LINE
8
hole
62
5
10
1.580620
20
3.706441
11
1.590150
21
3.728612
0
LINE
8
hole
62
5
10
1.590150
20
3.728612
11
1.598612
21
3.748241
0
LINE
8
hole
62
5
10
1.598612
20
3.748241
11
1.608215
21
3.770380
0
LINE
8
hole
62
5
10
1.608215
20
3.770380
11
1.616748
21
3.789978
0
LINE
8
hole
62
5
10
1.616748
20
3.789978
11
1.626434
21
3.812080
0
LINE
8
hole
62
5
10
1.626434
20
3.812080
11
1.634776
21
3.831034
0
LINE
8
hole
62
5
10
1.634776
20
3.831034
11
1.644245
21
3.852408
0
LINE
8
hole
62
5
10
1.644245
20
3.852408
11
1.653211
21
3.872545
0
LINE
8
hole
62
5
10
1.653211
20
3.872545
11
1.663392
21
3.895251
0
LINE
8
hole
62
5
10
1.663392
20
3.895251
11
1.672180
21
3.914736
0
LINE
8
hole
62
5
10
1.672180
20
3.914736
11
1.682162
21
3.936705
0
LINE
8
hole
62
5
10
1.682162
20
3.936705
11
1.691052
21
3.956143
0
LINE
8
hole
62
5
10
1.691052
20
3.956143
11
1.701152
21
3.978058
0
LINE
8
hole
62
5
10
1.701152
20
3.978058
11
1.710161
21
3.997441
0
LINE
8
hole
62
5
10
1.710161
20
3.997441
11
1.720398
21
4.019291
0
LINE
8
hole
62
5
10
1.720398
20
4.019291
11
1.729547
21
4.038608
0
LINE
8
hole
62
5
10
1.729547
20
4.038608
11
1.739944
21
4.060383
0
LINE
8
hole
62
5
10
1.739944
20
4.060383
11
1.749255
21
4.079623
0
LINE
8
hole
62
5
10
1.749255
20
4.079623
11
1.759834
21
4.101310
0
LINE
8
hole
62
5
10
1.759834
20
4.101310
11
1.769328
21
4.120460
0
LINE
8
hole
62
5
10
1.769328
20
4.120460
11
1.780112
21
4.142046
0
LINE
8
hole
62
5
10
1.780112
20
4.142046
11
1.789811
21
4.161093
0
LINE
8
hole
62
5
10
1.789811
20
4.161093
11
1.800822
21
4.182564
0
LINE
8
hole
62
5
10
1.800822
20
4.182564
11
1.810748
21
4.201495
0
LINE
8
hole
62
5
10
1.810748
20
4.201495
11
1.822009
21
4.222838
0
LINE
8
hole
62
5
10
1.822009
20
4.222838
11
1.832181
21
4.241638
0
LINE
8
hole
62
5
10
1.832181
20
4.241638
11
1.843713
21
4.262835
0
LINE
8
hole
62
5
10
1.843713
20
4.262835
11
1.854150
21
4.281490
0
LINE
8
hole
62
5
10
1.854150
20
4.281490
11
1.865974
21
4.302527
0
LINE
8
hole
62
5
10
1.865974
20
4.302527
11
1.877189
21
4.321850
0
LINE
8
hole
62
5
10
1.877189
20
4.321850
11
1.889883
21
4.343645
0
LINE
8
hole
62
5
10
1.889883
20
4.343645
11
1.900428
21
4.361122
0
LINE
8
hole
62
5
10
1.900428
20
4.361122
11
1.912354
21
4.380839
0
LINE
8
hole
62
5
10
1.912354
20
4.380839
11
1.923730
21
4.398938
0
LINE
8
hole
62
5
10
1.923730
20
4.398938
11
1.936584
21
4.419363
0
LINE
8
hole
62
5
10
1.936584
20
4.419363
11
1.948326
21
4.437227
0
LINE
8
hole
62
5
10
1.948326
20
4.437227
11
1.961582
21
4.457394
0
LINE
8
hole
62
5
10
1.961582
20
4.457394
11
1.973715
21
4.474995
0
LINE
8
hole
62
5
10
1.973715
20
4.474995
11
1.987397
21
4.494874
0
LINE
8
hole
62
5
10
1.987397
20
4.494874
11
1.999938
21
4.512185
0
LINE
8
hole
62
5
10
1.999938
20
4.512185
11
2.014066
21
4.531750
0
LINE
8
hole
62
5
10
2.014066
20
4.531750
11
2.027029
21
4.548746
0
LINE
8
hole
62
5
10
2.027029
20
4.548746
11
2.041621
21
4.567966
0
LINE
8
hole
62
5
10
2.041621
20
4.567966
11
2.055014
21
4.584618
0
LINE
8
hole
62
5
10
2.055014
20
4.584618
11
2.070076
21
4.603463
0
LINE
8
hole
62
5
10
2.070076
20
4.603463
11
2.083913
21
4.619755
0
LINE
8
hole
62
5
10
2.083913
20
4.619755
11
2.099462
21
4.638208
0
LINE
8
hole
62
5
10
2.099462
20
4.638208
11
2.113285
21
4.653623
0
LINE
8
hole
62
5
10
2.113285
20
4.653623
11
2.128807
21
4.671097
0
LINE
8
hole
62
5
10
2.128807
20
4.671097
11
2.143968
21
4.687081
0
LINE
8
hole
62
5
10
2.143968
20
4.687081
11
2.160982
21
4.705220
0
LINE
8
hole
62
5
10
2.160982
20
4.705220
11
2.176126
21
4.720287
0
LINE
8
hole
62
5
10
2.176126
20
4.720287
11
2.193112
21
4.737404
0
LINE
8
hole
62
5
10
2.193112
20
4.737404
11
2.208687
21
4.752019
0
LINE
8
hole
62
5
10
2.208687
20
4.752019
11
2.226149
21
4.768643
0
LINE
8
hole
62
5
10
2.226149
20
4.768643
11
2.242158
21
4.782772
0
LINE
8
hole
62
5
10
2.242158
20
4.782772
11
2.260098
21
4.798869
0
LINE
8
hole
62
5
10
2.260098
20
4.798869
11
2.276547
21
4.812472
0
LINE
8
hole
62
5
10
2.276547
20
4.812472
11
2.294970
21
4.828000
0
LINE
8
hole
62
5
10
2.294970
20
4.828000
11
2.311865
21
4.841027
0
LINE
8
hole
62
5
10
2.311865
20
4.841027
11
2.330776
21
4.855937
0
LINE
8
hole
62
5
10
2.330776
20
4.855937
11
2.348124
21
4.868332
0
LINE
8
hole
62
5
10
2.348124
20
4.868332
11
2.367532
21
4.882563
0
LINE
8
hole
62
5
10
2.367532
20
4.882563
11
2.385338
21
4.894262
0
LINE
8
hole
62
5
10
2.385338
20
4.894262
11
2.405248
21
4.907746
0
LINE
8
hole
62
5
10
2.405248
20
4.907746
11
2.423514
21
4.918674
0
LINE
8
hole
62
5
10
2.423514
20
4.918674
11
2.443932
21
4.931331
0
LINE
8
hole
62
5
10
2.443932
20
4.931331
11
2.462652
21
4.941408
0
LINE
8
hole
62
5
10
2.462652
20
4.941408
11
2.483574
21
4.953155
0
LINE
8
hole
62
5
10
2.483574
20
4.953155
11
2.502738
21
4.962296
0
LINE
8
hole
62
5
10
2.502738
20
4.962296
11
2.524154
21
4.973038
0
LINE
8
hole
62
5
10
2.524154
20
4.973038
11
2.544636
21
4.981496
0
LINE
8
hole
62
5
10
2.544636
20
4.981496
11
2.567530
21
4.991546
0
LINE
8
hole
62
5
10
2.567530
20
4.991546
11
2.586607
21
4.998203
0
LINE
8
hole
62
5
10
2.586607
20
4.998203
11
2.607940
21
5.006231
0
LINE
8
hole
62
5
10
2.607940
20
5.006231
11
2.628259
21
5.012017
0
LINE
8
hole
62
5
10
2.628259
20
5.012017
11
2.651000
21
5.019144
0
LINE
8
hole
62
5
10
2.651000
20
5.019144
11
2.671607
21
5.023624
0
LINE
8
hole
62
5
10
2.671607
20
5.023624
11
2.694698
21
5.029330
0
LINE
8
hole
62
5
10
2.694698
20
5.029330
11
2.715526
21
5.032415
0
LINE
8
hole
62
5
10
2.715526
20
5.032415
11
2.738899
21
5.036594
0
LINE
8
hole
62
5
10
2.738899
20
5.036594
11
2.759865
21
5.038214
0
LINE
8
hole
62
5
10
2.759865
20
5.038214
11
2.783439
21
5.040774
0
LINE
8
hole
62
5
10
2.783439
20
5.040774
11
2.804453
21
5.040864
0
LINE
8
hole
62
5
10
2.804453
20
5.040864
11
2.828135
21
5.041718
0
LINE
8
hole
62
5
10
2.828135
20
5.041718
11
2.849101
21
5.040239
0
LINE
8
hole
62
5
10
2.849101
20
5.040239
11
2.872784
21
5.039314
0
LINE
8
hole
62
5
10
2.872784
20
5.039314
11
2.893604
21
5.036231
0
LINE
8
hole
62
5
10
2.893604
20
5.036231
11
2.917177
21
5.033465
0
LINE
8
hole
62
5
10
2.917177
20
5.033465
11
2.937099
21
5.028941
0
LINE
8
hole
62
5
10
2.937099
20
5.028941
11
2.959704
21
5.024478
0
LINE
8
hole
62
5
10
2.959704
20
5.024478
11
2.980505
21
5.018017
0
LINE
8
hole
62
5
10
2.980505
20
5.018017
11
3.004151
21
5.011340
0
LINE
8
hole
62
5
10
3.004151
20
5.011340
11
3.023838
21
5.003545
0
LINE
8
hole
62
5
10
3.023838
20
5.003545
11
3.046251
21
4.995277
0
LINE
8
hole
62
5
10
3.046251
20
4.995277
11
3.065365
21
4.986096
0
LINE
8
hole
62
5
10
3.065365
20
4.986096
11
3.087151
21
4.976206
0
LINE
8
hole
62
5
10
3.087151
20
4.976206
11
3.105630
21
4.965755
0
LINE
8
hole
62
5
10
3.105630
20
4.965755
11
3.126713
21
4.954380
0
LINE
8
hole
62
5
10
3.126713
20
4.954380
11
3.144509
21
4.942771
0
LINE
8
hole
62
5
10
3.144509
20
4.942771
11
3.164831
21
4.930046
0
LINE
8
hole
62
5
10
3.164831
20
4.930046
11
3.181910
21
4.917381
0
LINE
8
hole
62
5
10
3.181910
20
4.917381
11
3.201432
21
4.903429
0
LINE
8
hole
62
5
10
3.201432
20
4.903429
11
3.217768
21
4.889805
0
LINE
8
hole
62
5
10
3.217768
20
4.889805
11
3.236461
21
4.874743
0
LINE
8
hole
62
5
10
3.236461
20
4.874743
11
3.252036
21
4.860244
0
LINE
8
hole
62
5
10
3.252036
20
4.860244
11
3.269877
21
4.844171
0
LINE
8
boundary
62
5
10
5.681972
20
10.816644
11
5.670203
21
10.832851
0
LINE
8
boundary
62
5
10
5.670203
20
10.832851
11
5.620552
21
10.886711
0
LINE
8
boundary
62
5
10
5.620552
20
10.886711
11
5.606517
21
10.900788
0
LINE
8
boundary
62
5
10
5.606517
20
10.900788
11
5.548551
21
10.946217
0
LINE
8
boundary
62
5
10
5.548551
20
10.946217
11
5.532383
21
10.957964
0
LINE
8
boundary
62
5
10
5.532383
20
10.957964
11
5.468281
21
10.994480
0
LINE
8
boundary
62
5
10
5.468281
20
10.994480
11
5.450571
21
11.003802
0
LINE
8
boundary
62
5
10
5.450571
20
11.003802
11
5.382641
21
11.033516
0
LINE
8
boundary
62
5
10
5.382641
20
11.033516
11
5.364008
21
11.041099
0
LINE
8
boundary
62
5
10
5.364008
20
11.041099
11
5.293986
21
11.066452
0
LINE
8
boundary
62
5
10
5.293986
20
11.066452
11
5.274891
21
11.073069
0
LINE
8
boundary
62
5
10
5.274891
20
11.073069
11
5.204179
21
11.096248
0
LINE
8
boundary
62
5
10
5.204179
20
11.096248
11
5.184994
21
11.102508
0
LINE
8
boundary
62
5
10
5.184994
20
11.102508
11
5.114124
21
11.124740
0
LINE
8
boundary
62
5
10
5.114124
20
11.124740
11
5.094944
21
11.130854
0
LINE
8
boundary
62
5
10
5.094944
20
11.130854
11
5.024141
21
11.153310
0
LINE
8
boundary
62
5
10
5.024141
20
11.153310
11
5.004974
21
11.159467
0
LINE
8
boundary
62
5
10
5.004974
20
11.159467
11
4.934267
21
11.182530
0
LINE
8
boundary
62
5
10
4.934267
20
11.182530
11
4.915101
21
11.188792
0
LINE
8
boundary
62
5
10
4.915101
20
11.188792
11
4.844451
21
11.212130
0
LINE
8
boundary
62
5
10
4.844451
20
11.212130
11
4.825286
21
11.218435
0
LINE
8
boundary
62
5
10
4.825286
20
11.218435
11
4.755378
21
11.241488
0
LINE
8
boundary
62
5
10
4.755378
20
11.241488
11
4.736415
21
11.247719
0
LINE
8
boundary
62
5
10
4.736415
20
11.247719
11
4.664950
21
11.271102
0
LINE
8
boundary
62
5
10
4.664950
20
11.271102
11
4.645572
21
11.277439
0
LINE
8
boundary
62
5
10
4.645572
20
11.277439
11
4.576306
21
11.300021
0
LINE
8
boundary
62
5
10
4.576306
20
11.300021
11
4.557528
21
11.306149
0
LINE
8
boundary
62
5
10
4.557528
20
11.306149
11
4.488240
21
11.328745
0
LINE
8
boundary
62
5
10
4.488240
20
11.328745
11
4.469457
21
11.334876
0
LINE
8
boundary
62
5
10
4.469457
20
11.334876
11
4.395888
21
11.358921
0
LINE
8
boundary
62
5
10
4.395888
20
11.358921
11
4.375942
21
11.365440
0
LINE
8
boundary
62
5
10
4.375942
20
11.365440
11
4.308355
21
11.387547
0
LINE
8
boundary
62
5
10
4.308355
20
11.387547
11
4.290030
21
11.393539
0
LINE
8
boundary
62
5
10
4.290030
20
11.393539
11
4.216169
21
11.417682
0
LINE
8
boundary
62
5
10
4.216169
20
11.417682
11
4.196141
21
11.424231
0
LINE
8
boundary
62
5
10
4.196141
20
11.424231
11
4.125418
21
11.447322
0
LINE
8
boundary
62
5
10
4.125418
20
11.447322
11
4.106242
21
11.453590
0
LINE
8
boundary
62
5
10
4.106242
20
11.453590
11
4.032291
21
11.477755
0
LINE
8
boundary
62
5
10
4.032291
20
11.477755
11
4.012243
21
11.484308
0
LINE
8
boundary
62
5
10
4.012243
20
11.484308
11
3.944932
21
11.506367
0
LINE
8
boundary
62
5
10
3.944932
20
11.506367
11
3.926686
21
11.512333
0
LINE
8
boundary
62
5
10
3.926686
20
11.512333
11
3.856064
21
11.535535
0
LINE
8
boundary
62
5
10
3.856064
20
11.535535
11
3.836918
21
11.541797
0
LINE
8
boundary
62
5
10
3.836918
20
11.541797
11
3.766204
21
11.564943
0
LINE
8
boundary
62
5
10
3.766204
20
11.564943
11
3.747025
21
11.571210
0
LINE
8
boundary
62
5
10
3.747025
20
11.571210
11
3.675854
21
11.594278
0
LINE
8
boundary
62
5
10
3.675854
20
11.594278
11
3.656541
21
11.600584
0
LINE
8
boundary
62
5
10
3.656541
20
11.600584
11
3.585486
21
11.623353
0
LINE
8
boundary
62
5
10
3.585486
20
11.623353
11
3.566213
21
11.629636
0
LINE
8
boundary
62
5
10
3.566213
20
11.629636
11
3.495516
21
11.652604
0
LINE
8
boundary
62
5
10
3.495516
20
11.652604
11
3.476371
21
11.658873
0
LINE
8
boundary
62
5
10
3.476371
20
11.658873
11
3.407686
21
11.681922
0
LINE
8
boundary
62
5
10
3.407686
20
11.681922
11
3.389116
21
11.688013
0
LINE
8
boundary
62
5
10
3.389116
20
11.688013
11
3.319361
21
11.711984
0
LINE
8
boundary
62
5
10
3.319361
20
11.711984
11
3.300493
21
11.718132
0
LINE
8
boundary
62
5
10
3.300493
20
11.718132
11
3.232449
21
11.736106
0
LINE
8
boundary
62
5
10
3.232449
20
11.736106
11
3.213975
21
11.740650
0
LINE
8
boundary
62
5
10
3.213975
20
11.740650
11
3.136654
21
11.740596
0
LINE
8
boundary
62
5
10
3.136654
20
11.740596
11
3.115596
21
11.740391
0
LINE
8
boundary
62
5
10
3.115596
20
11.740391
11
3.054900
21
11.701606
0
LINE
8
boundary
62
5
10
3.054900
20
11.701606
11
3.038349
21
11.691142
0
LINE
8
boundary
62
5
10
3.038349
20
11.691142
11
2.999147
21
11.625515
0
LINE
8
boundary
62
5
10
2.999147
20
11.625515
11
2.988514
21
11.607681
0
LINE
8
boundary
62
5
10
2.988514
20
11.607681
11
2.969418
21
11.536959
0
LINE
8
boundary
62
5
10
2.969418
20
11.536959
11
2.964341
21
11.517705
0
LINE
8
boundary
62
5
10
2.964341
20
11.517705
11
2.963953
21
11.440317
0
LINE
8
boundary
62
5
10
2.963953
20
11.440317
11
2.964116
21
11.419299
0
LINE
8
boundary
62
5
10
2.964116
20
11.419299
11
2.987452
21
11.350278
0
LINE
8
boundary
62
5
10
2.987452
20
11.350278
11
2.994185
21
11.331692
0
LINE
8
boundary
62
5
10
2.994185
20
11.331692
11
3.042191
21
11.273657
0
LINE
8
boundary
62
5
10
3.042191
20
11.273657
11
3.055510
21
11.258009
0
LINE
8
boundary
62
5
10
3.055510
20
11.258009
11
3.117315
21
11.220793
0
LINE
8
boundary
62
5
10
3.117315
20
11.220793
11
3.134033
21
11.210589
0
LINE
8
boundary
62
5
10
3.134033
20
11.210589
11
3.203471
21
11.187041
0
LINE
8
boundary
62
5
10
3.203471
20
11.187041
11
3.222055
21
11.180476
0
LINE
8
boundary
62
5
10
3.222055
20
11.180476
11
3.291987
21
11.164710
0
LINE
8
boundary
62
5
10
3.291987
20
11.164710
11
3.310705
21
11.160287
0
LINE
8
boundary
62
5
10
3.310705
20
11.160287
11
3.383804
21
11.146530
0
LINE
8
boundary
62
5
10
3.383804
20
11.146530
11
3.403510
21
11.142734
0
LINE
8
boundary
62
5
10
3.403510
20
11.142734
11
3.478083
21
11.125952
0
LINE
8
boundary
62
5
10
3.478083
20
11.125952
11
3.498455
21
11.121476
0
LINE
8
boundary
62
5
10
3.498455
20
11.121476
11
3.570076
21
11.091213
0
LINE
8
boundary
62
5
10
3.570076
20
11.091213
11
3.589984
21
11.083282
0
LINE
8
boundary
62
5
10
3.589984
20
11.083282
11
3.628863
21
11.025927
0
LINE
8
boundary
62
5
10
3.628863
20
11.025927
11
3.640128
21
11.010822
0
LINE
8
boundary
62
5
10
3.640128
20
11.010822
11
3.636733
21
10.938378
0
LINE
8
boundary
62
5
10
3.636733
20
10.938378
11
3.636172
21
10.918962
0
LINE
8
boundary
62
5
10
3.636172
20
10.918962
11
3.614858
21
10.845526
0
LINE
8
boundary
62
5
10
3.614858
20
10.845526
11
3.609171
21
10.825636
0
LINE
8
boundary
62
5
10
3.609171
20
10.825636
11
3.583697
21
10.756290
0
LINE
8
boundary
62
5
10
3.583697
20
10.756290
11
3.576757
21
10.737388
0
LINE
8
boundary
62
5
10
3.576757
20
10.737388
11
3.549648
21
10.667370
0
LINE
8
boundary
62
5
10
3.549648
20
10.667370
11
3.542299
21
10.648313
0
LINE
8
boundary
62
5
10
3.542299
20
10.648313
11
3.514776
21
10.579386
0
LINE
8
boundary
62
5
10
3.514776
20
10.579386
11
3.507341
21
10.560681
0
LINE
8
boundary
62
5
10
3.507341
20
10.560681
11
3.479815
21
10.492165
0
LINE
8
boundary
62
5
10
3.479815
20
10.492165
11
3.472370
21
10.473614
0
LINE
8
boundary
62
5
10
3.472370
20
10.473614
11
3.445011
21
10.404711
0
LINE
8
boundary
62
5
10
3.445011
20
10.404711
11
3.437593
21
10.386050
0
LINE
8
boundary
62
5
10
3.437593
20
10.386050
11
3.410324
21
10.316788
0
LINE
8
boundary
62
5
10
3.410324
20
10.316788
11
3.402924
21
10.298015
0
LINE
8
boundary
62
5
10
3.402924
20
10.298015
11
3.375678
21
10.228658
0
LINE
8
boundary
62
5
10
3.375678
20
10.228658
11
3.368285
21
10.209847
0
LINE
8
boundary
62
5
10
3.368285
20
10.209847
11
3.340983
21
10.140550
0
LINE
8
boundary
62
5
10
3.340983
20
10.140550
11
3.333579
21
10.121756
0
LINE
8
boundary
62
5
10
3.333579
20
10.121756
11
3.306261
21
10.052584
0
LINE
8
boundary
62
5
10
3.306261
20
10.052584
11
3.298855
21
10.033828
0
LINE
8
boundary
62
5
10
3.298855
20
10.033828
11
3.271860
21
9.965533
0
LINE
8
boundary
62
5
10
3.271860
20
9.965533
11
3.264543
21
9.947017
0
LINE
8
boundary
62
5
10
3.264543
20
9.947017
11
3.236891
21
9.877008
0
LINE
8
boundary
62
5
10
3.236891
20
9.877008
11
3.229394
21
9.858027
0
LINE
8
boundary
62
5
10
3.229394
20
9.858027
11
3.202680
21
9.790344
0
LINE
8
boundary
62
5
10
3.202680
20
9.790344
11
3.195436
21
9.771994
0
LINE
8
boundary
62
5
10
3.195436
20
9.771994
11
3.168678
21
9.704182
0
LINE
8
boundary
62
5
10
3.168678
20
9.704182
11
3.161423
21
9.685796
0
LINE
8
boundary
62
5
10
3.161423
20
9.685796
11
3.132966
21
9.613692
0
LINE
8
boundary
62
5
10
3.132966
20
9.613692
11
3.125250
21
9.594142
0
LINE
8
boundary
62
5
10
3.125250
20
9.594142
11
3.099194
21
9.528134
0
LINE
8
boundary
62
5
10
3.099194
20
9.528134
11
3.092130
21
9.510237
0
LINE
8
boundary
62
5
10
3.092130
20
9.510237
11
3.063560
21
9.437867
0
LINE
8
boundary
62
5
10
3.063560
20
9.437867
11
3.055814
21
9.418245
0
LINE
8
boundary
62
5
10
3.055814
20
9.418245
11
3.034912
21
9.365296
0
LINE
8
boundary
62
5
10
3.034912
20
9.365296
11
3.053662
21
9.346546
0
LINE
8
boundary
62
5
10
3.053662
20
9.346546
11
3.259497
21
9.346546
0
LINE
8
boundary
62
5
10
3.259497
20
9.346546
11
3.279773
21
9.360094
0
LINE
8
boundary
62
5
10
3.279773
20
9.360094
11
3.303691
21
9.364852
0
LINE
8
boundary
62
5
10
3.303691
20
9.364852
11
3.327609
21
9.360094
0
LINE
8
boundary
62
5
10
3.327609
20
9.360094
11
3.347885
21
9.346546
0
LINE
8
boundary
62
5
10
3.347885
20
9.346546
11
3.361433
21
9.326269
0
LINE
8
boundary
62
5
10
3.361433
20
9.326269
11
3.366191
21
9.302352
0
LINE
8
boundary
62
5
10
3.366191
20
9.302352
11
3.361433
21
9.278434
0
LINE
8
boundary
62
5
10
3.361433
20
9.278434
11
3.347885
21
9.258157
0
LINE
8
boundary
62
5
10
3.347885
20
9.258157
11
3.347885
21
9.059934
0
LINE
8
boundary
62
5
10
3.347885
20
9.059934
11
3.361433
21
9.039658
0
LINE
8
boundary
62
5
10
3.361433
20
9.039658
11
3.366191
21
9.015740
0
LINE
8
boundary
62
5
10
3.366191
20
9.015740
11
3.361433
21
8.991822
0
LINE
8
boundary
62
5
10
3.361433
20
8.991822
11
3.347885
21
8.971546
0
LINE
8
boundary
62
5
10
3.347885
20
8.971546
11
3.327609
21
8.957997
0
LINE
8
boundary
62
5
10
3.327609
20
8.957997
11
3.303691
21
8.953240
0
LINE
8
boundary
62
5
10
3.303691
20
8.953240
11
3.279773
21
8.957997
0
LINE
8
boundary
62
5
10
3.279773
20
8.957997
11
3.259497
21
8.971546
0
LINE
8
boundary
62
5
10
3.259497
20
8.971546
11
2.890833
21
8.971546
0
LINE
8
boundary
62
5
10
2.890833
20
8.971546
11
2.872083
21
8.952796
0
LINE
8
boundary
62
5
10
2.872083
20
8.952796
11
2.854915
21
8.909302
0
LINE
8
boundary
62
5
10
2.854915
20
8.909302
11
2.847509
21
8.890543
0
LINE
8
boundary
62
5
10
2.847509
20
8.890543
11
2.820197
21
8.821352
0
LINE
8
boundary
62
5
10
2.820197
20
8.821352
11
2.812792
21
8.802592
0
LINE
8
boundary
62
5
10
2.812792
20
8.802592
11
2.785480
21
8.733401
0
LINE
8
boundary
62
5
10
2.785480
20
8.733401
11
2.778075
21
8.714641
0
LINE
8
boundary
62
5
10
2.778075
20
8.714641
11
2.751024
21
8.646112
0
LINE
8
boundary
62
5
10
2.751024
20
8.646112
11
2.743689
21
8.627532
0
LINE
8
boundary
62
5
10
2.743689
20
8.627532
11
2.716116
21
8.557679
0
LINE
8
boundary
62
5
10
2.716116
20
8.557679
11
2.708640
21
8.538740
0
LINE
8
boundary
62
5
10
2.708640
20
8.538740
11
2.681328
21
8.469550
0
LINE
8
boundary
62
5
10
2.681328
20
8.469550
11
2.673923
21
8.450790
0
LINE
8
boundary
62
5
10
2.673923
20
8.450790
11
2.645374
21
8.378466
0
LINE
8
boundary
62
5
10
2.645374
20
8.378466
11
2.637634
21
8.358858
0
LINE
8
boundary
62
5
10
2.637634
20
8.358858
11
2.611558
21
8.292799
0
LINE
8
boundary
62
5
10
2.611558
20
8.292799
11
2.604488
21
8.274888
0
LINE
8
boundary
62
5
10
2.604488
20
8.274888
11
2.577176
21
8.205696
0
LINE
8
boundary
62
5
10
2.577176
20
8.205696
11
2.569770
21
8.186937
0
LINE
8
boundary
62
5
10
2.569770
20
8.186937
11
2.543042
21
8.119226
0
LINE
8
boundary
62
5
10
2.543042
20
8.119226
11
2.535795
21
8.100868
0
LINE
8
boundary
62
5
10
2.535795
20
8.100868
11
2.507899
21
8.030197
0
LINE
8
boundary
62
5
10
2.507899
20
8.030197
11
2.500336
21
8.011036
0
LINE
8
boundary
62
5
10
2.500336
20
8.011036
11
2.472400
21
7.940265
0
LINE
8
boundary
62
5
10
2.472400
20
7.940265
11
2.464826
21
7.921077
0
LINE
8
boundary
62
5
10
2.464826
20
7.921077
11
2.438137
21
7.853466
0
LINE
8
boundary
62
5
10
2.438137
20
7.853466
11
2.430901
21
7.835134
0
LINE
8
boundary
62
5
10
2.430901
20
7.835134
11
2.403589
21
7.765943
0
LINE
8
boundary
62
5
10
2.403589
20
7.765943
11
2.396183
21
7.747184
0
LINE
8
boundary
62
5
10
2.396183
20
7.747184
11
2.368871
21
7.677993
0
LINE
8
boundary
62
5
10
2.368871
20
7.677993
11
2.361466
21
7.659233
0
LINE
8
boundary
62
5
10
2.361466
20
7.659233
11
2.334154
21
7.590042
0
LINE
8
boundary
62
5
10
2.334154
20
7.590042
11
2.326749
21
7.571282
0
LINE
8
boundary
62
5
10
2.326749
20
7.571282
11
2.299436
21
7.502091
0
LINE
8
boundary
62
5
10
2.299436
20
7.502091
11
2.292031
21
7.483332
0
LINE
8
boundary
62
5
10
2.292031
20
7.483332
11
2.264719
21
7.414141
0
LINE
8
boundary
62
5
10
2.264719
20
7.414141
11
2.257314
21
7.395381
0
LINE
8
boundary
62
5
10
2.257314
20
7.395381
11
2.230001
21
7.326190
0
LINE
8
boundary
62
5
10
2.230001
20
7.326190
11
2.222596
21
7.307430
0
LINE
8
boundary
62
5
10
2.222596
20
7.307430
11
2.195284
21
7.238239
0
LINE
8
boundary
62
5
10
2.195284
20
7.238239
11
2.187879
21
7.219479
0
LINE
8
boundary
62
5
10
2.187879
20
7.219479
11
2.160567
21
7.150289
0
LINE
8
boundary
62
5
10
2.160567
20
7.150289
11
2.153162
21
7.131529
0
LINE
8
boundary
62
5
10
2.153162
20
7.131529
11
2.125849
21
7.062338
0
LINE
8
boundary
62
5
10
2.125849
20
7.062338
11
2.118444
21
7.043578
0
LINE
8
boundary
62
5
10
2.118444
20
7.043578
11
2.090775
21
6.973484
0
LINE
8
boundary
62
5
10
2.090775
20
6.973484
11
2.083273
21
6.954479
0
LINE
8
boundary
62
5
10
2.083273
20
6.954479
11
2.056318
21
6.886191
0
LINE
8
boundary
62
5
10
2.056318
20
6.886191
11
2.049010
21
6.867676
0
LINE
8
boundary
62
5
10
2.049010
20
6.867676
11
2.021605
21
6.798251
0
LINE
8
boundary
62
5
10
2.021605
20
6.798251
11
2.014175
21
6.779428
0
LINE
8
boundary
62
5
10
2.014175
20
6.779428
11
1.987420
21
6.711650
0
LINE
8
boundary
62
5
10
1.987420
20
6.711650
11
1.980166
21
6.693274
0
LINE
8
boundary
62
5
10
1.980166
20
6.693274
11
1.952389
21
6.622904
0
LINE
8
boundary
62
5
10
1.952389
20
6.622904
11
1.944858
21
6.603824
0
LINE
8
boundary
62
5
10
1.944858
20
6.603824
11
1.918121
21
6.536092
0
LINE
8
boundary
62
5
10
1.918121
20
6.536092
11
1.910872
21
6.517727
0
LINE
8
boundary
62
5
10
1.910872
20
6.517727
11
1.882984
21
6.447078
0
LINE
8
boundary
62
5
10
1.882984
20
6.447078
11
1.875423
21
6.427923
0
LINE
8
boundary
62
5
10
1.875423
20
6.427923
11
1.848111
21
6.358732
0
LINE
8
boundary
62
5
10
1.848111
20
6.358732
11
1.840705
21
6.339972
0
LINE
8
boundary
62
5
10
1.840705
20
6.339972
11
1.813393
21
6.270781
0
LINE
8
boundary
62
5
10
1.813393
20
6.270781
11
1.805988
21
6.252021
0
LINE
8
boundary
62
5
10
1.805988
20
6.252021
11
1.778676
21
6.182831
0
LINE
8
boundary
62
5
10
1.778676
20
6.182831
11
1.771270
21
6.164071
0
LINE
8
boundary
62
5
10
1.771270
20
6.164071
11
1.743958
21
6.094880
0
LINE
8
boundary
62
5
10
1.743958
20
6.094880
11
1.736553
21
6.076120
0
LINE
8
boundary
62
5
10
1.736553
20
6.076120
11
1.709241
21
6.006929
0
LINE
8
boundary
62
5
10
1.709241
20
6.006929
11
1.701836
21
5.988169
0
LINE
8
boundary
62
5
10
1.701836
20
5.988169
11
1.674524
21
5.918978
0
LINE
8
boundary
62
5
10
1.674524
20
5.918978
11
1.667118
21
5.900218
0
LINE
8
boundary
62
5
10
1.667118
20
5.900218
11
1.639806
21
5.831028
0
LINE
8
boundary
62
5
10
1.639806
20
5.831028
11
1.632401
21
5.812268
0
LINE
8
boundary
62
5
10
1.632401
20
5.812268
11
1.605089
21
5.743077
0
LINE
8
boundary
62
5
10
1.605089
20
5.743077
11
1.597684
21
5.724317
0
LINE
8
boundary
62
5
10
1.597684
20
5.724317
11
1.569950
21
5.654059
0
LINE
8
boundary
62
5
10
1.569950
20
5.654059
11
1.562430
21
5.635009
0
LINE
8
boundary
62
5
10
1.562430
20
5.635009
11
1.535540
21
5.566886
0
LINE
8
boundary
62
5
10
1.535540
20
5.566886
11
1.528249
21
5.548416
0
LINE
8
boundary
62
5
10
1.528249
20
5.548416
11
1.500937
21
5.479225
0
LINE
8
boundary
62
5
10
1.500937
20
5.479225
11
1.493532
21
5.460465
0
LINE
8
boundary
62
5
10
1.493532
20
5.460465
11
1.466219
21
5.391274
0
LINE
8
boundary
62
5
10
1.466219
20
5.391274
11
1.458814
21
5.372514
0
LINE
8
boundary
62
5
10
1.458814
20
5.372514
11
1.431502
21
5.303324
0
LINE
8
boundary
62
5
10
1.431502
20
5.303324
11
1.424097
21
5.284564
0
LINE
8
boundary
62
5
10
1.424097
20
5.284564
11
1.398023
21
5.218511
0
LINE
8
boundary
62
5
10
1.398023
20
5.218511
11
1.390954
21
5.200602
0
LINE
8
boundary
62
5
10
1.390954
20
5.200602
11
1.362304
21
5.128023
0
LINE
8
boundary
62
5
10
1.362304
20
5.128023
11
1.354536
21
5.108345
0
LINE
8
boundary
62
5
10
1.354536
20
5.108345
11
1.327323
21
5.039404
0
LINE
8
boundary
62
5
10
1.327323
20
5.039404
11
1.319944
21
5.020712
0
LINE
8
boundary
62
5
10
1.319944
20
5.020712
11
1.291326
21
4.948211
0
LINE
8
boundary
62
5
10
1.291326
20
4.948211
11
1.283567
21
4.928554
0
LINE
8
boundary
62
5
10
1.283567
20
4.928554
11
1.257561
21
4.862673
0
LINE
8
boundary
62
5
10
1.257561
20
4.862673
11
1.250510
21
4.844810
0
LINE
8
boundary
62
5
10
1.250510
20
4.844810
11
1.223197
21
4.775620
0
LINE
8
boundary
62
5
10
1.223197
20
4.775620
11
1.215792
21
4.756860
0
LINE
8
boundary
62
5
10
1.215792
20
4.756860
11
1.188480
21
4.687669
0
LINE
8
boundary
62
5
10
1.188480
20
4.687669
11
1.181075
21
4.668909
0
LINE
8
boundary
62
5
10
1.181075
20
4.668909
11
1.153763
21
4.599718
0
LINE
8
boundary
62
5
10
1.153763
20
4.599718
11
1.146358
21
4.580958
0
LINE
8
boundary
62
5
10
1.146358
20
4.580958
11
1.119045
21
4.511767
0
LINE
8
boundary
62
5
10
1.119045
20
4.511767
11
1.111640
21
4.493007
0
LINE
8
boundary
62
5
10
1.111640
20
4.493007
11
1.084328
21
4.423816
0
LINE
8
boundary
62
5
10
1.084328
20
4.423816
11
1.076923
21
4.405057
0
LINE
8
boundary
62
5
10
1.076923
20
4.405057
11
1.049611
21
4.335866
0
LINE
8
boundary
62
5
10
1.049611
20
4.335866
11
1.042206
21
4.317106
0
LINE
8
boundary
62
5
10
1.042206
20
4.317106
11
1.015590
21
4.249682
0
LINE
8
boundary
62
5
10
1.015590
20
4.249682
11
1.008374
21
4.231401
0
LINE
8
boundary
62
5
10
1.008374
20
4.231401
11
0.986692
21
4.176473
0
LINE
8
boundary
62
5
10
0.986692
20
4.176473
11
1.005442
21
4.157723
0
LINE
8
boundary
62
5
10
1.005442
20
4.157723
11
1.224379
21
4.157723
0
LINE
8
boundary
62
5
10
1.224379
20
4.157723
11
1.244655
21
4.171272
0
LINE
8
boundary
62
5
10
1.244655
20
4.171272
11
1.268573
21
4.176029
0
LINE
8
boundary
62
5
10
1.268573
20
4.176029
11
1.292491
21
4.171272
0
LINE
8
boundary
62
5
10
1.292491
20
4.171272
11
1.312767
21
4.157723
0
LINE
8
boundary
62
5
10
1.312767
20
4.157723
11
1.326315
21
4.137447
0
LINE
8
boundary
62
5
10
1.326315
20
4.137447
11
1.331073
21
4.113529
0
LINE
8
boundary
62
5
10
1.331073
20
4.113529
11
1.326315
21
4.089611
0
LINE
8
boundary
62
5
10
1.326315
20
4.089611
11
1.312767
21
4.069335
0
LINE
8
boundary
62
5
10
1.312767
20
4.069335
11
1.312767
21
3.871112
0
LINE
8
boundary
62
5
10
1.312767
20
3.871112
11
1.326315
21
3.850835
0
LINE
8
boundary
62
5
10
1.326315
20
3.850835
11
1.331073
21
3.826917
0
LINE
8
boundary
62
5
10
1.331073
20
3.826917
11
1.326315
21
3.803000
0
LINE
8
boundary
62
5
10
1.326315
20
3.803000
11
1.312767
21
3.782723
0
LINE
8
boundary
62
5
10
1.312767
20
3.782723
11
1.292491
21
3.769175
0
LINE
8
boundary
62
5
10
1.292491
20
3.769175
11
1.268573
21
3.764417
0
LINE
8
boundary
62
5
10
1.268573
20
3.764417
11
1.244655
21
3.769175
0
LINE
8
boundary
62
5
10
1.244655
20
3.769175
11
1.224379
21
3.782723
0
LINE
8
boundary
62
5
10
1.224379
20
3.782723
11
0.842620
21
3.782723
0
LINE
8
boundary
62
5
10
0.842620
20
3.782723
11
0.823870
21
3.763973
0
LINE
8
boundary
62
5
10
0.823870
20
3.763973
11
0.823870
21
3.763973
0
LINE
8
boundary
62
5
10
0.823870
20
3.763973
11
0.823870
21
3.763973
0
LINE
8
boundary
62
5
10
0.823870
20
3.763973
11
0.806163
21
3.719126
0
LINE
8
boundary
62
5
10
0.806163
20
3.719126
11
0.798908
21
3.700750
0
LINE
8
boundary
62
5
10
0.798908
20
3.700750
11
0.771801
21
3.632117
0
LINE
8
boundary
62
5
10
0.771801
20
3.632117
11
0.764451
21
3.613509
0
LINE
8
boundary
62
5
10
0.764451
20
3.613509
11
0.737023
21
3.544047
0
LINE
8
boundary
62
5
10
0.737023
20
3.544047
11
0.729585
21
3.525214
0
LINE
8
boundary
62
5
10
0.729585
20
3.525214
11
0.702395
21
3.456289
0
LINE
8
boundary
62
5
10
0.702395
20
3.456289
11
0.695023
21
3.437601
0
LINE
8
boundary
62
5
10
0.695023
20
3.437601
11
0.667757
21
3.368387
0
LINE
8
boundary
62
5
10
0.667757
20
3.368387
11
0.660365
21
3.349621
0
LINE
8
boundary
62
5
10
0.660365
20
3.349621
11
0.633087
21
3.280414
0
LINE
8
boundary
62
5
10
0.633087
20
3.280414
11
0.625693
21
3.261649
0
LINE
8
boundary
62
5
10
0.625693
20
3.261649
11
0.598341
21
3.192485
0
LINE
8
boundary
62
5
10
0.598341
20
3.192485
11
0.590926
21
3.173733
0
LINE
8
boundary
62
5
10
0.590926
20
3.173733
11
0.563449
21
3.104622
0
LINE
8
boundary
62
5
10
0.563449
20
3.104622
11
0.555997
21
3.085887
0
LINE
8
boundary
62
5
10
0.555997
20
3.085887
11
0.528541
21
3.016763
0
LINE
8
boundary
62
5
10
0.528541
20
3.016763
11
0.521090
21
2.998025
0
LINE
8
boundary
62
5
10
0.521090
20
2.998025
11
0.493891
21
2.928756
0
LINE
8
boundary
62
5
10
0.493891
20
2.928756
11
0.486511
21
2.909974
0
LINE
8
boundary
62
5
10
0.486511
20
2.909974
11
0.459780
21
2.840496
0
LINE
8
boundary
62
5
10
0.459780
20
2.840496
11
0.452541
21
2.821649
0
LINE
8
boundary
62
5
10
0.452541
20
2.821649
11
0.425808
21
2.752183
0
LINE
8
boundary
62
5
10
0.425808
20
2.752183
11
0.418585
21
2.733335
0
LINE
8
boundary
62
5
10
0.418585
20
2.733335
11
0.390924
21
2.664235
0
LINE
8
boundary
62
5
10
0.390924
20
2.664235
11
0.383445
21
2.645500
0
LINE
8
boundary
62
5
10
0.383445
20
2.645500
11
0.354275
21
2.577394
0
LINE
8
boundary
62
5
10
0.354275
20
2.577394
11
0.346328
21
2.558965
0
LINE
8
boundary
62
5
10
0.346328
20
2.558965
11
0.317741
21
2.490474
0
LINE
8
boundary
62
5
10
0.317741
20
2.490474
11
0.309818
21
2.471980
0
LINE
8
boundary
62
5
10
0.309818
20
2.471980
11
0.286212
21
2.401324
0
LINE
8
boundary
62
5
10
0.286212
20
2.401324
11
0.279505
21
2.382245
0
LINE
8
boundary
62
5
10
0.279505
20
2.382245
11
0.265708
21
2.308813
0
LINE
8
boundary
62
5
10
0.265708
20
2.308813
11
0.261562
21
2.288928
0
LINE
8
boundary
62
5
10
0.261562
20
2.288928
11
0.260108
21
2.215757
0
LINE
8
boundary
62
5
10
0.260108
20
2.215757
11
0.259350
21
2.195881
0
LINE
8
boundary
62
5
10
0.259350
20
2.195881
11
0.272959
21
2.119966
0
LINE
8
boundary
62
5
10
0.272959
20
2.119966
11
0.276464
21
2.099423
0
LINE
8
boundary
62
5
10
0.276464
20
2.099423
11
0.304885
21
2.035617
0
LINE
8
boundary
62
5
10
0.304885
20
2.035617
11
0.312766
21
2.018575
0
LINE
8
boundary
62
5
10
0.312766
20
2.018575
11
0.357694
21
1.962243
0
LINE
8
boundary
62
5
10
0.357694
20
1.962243
11
0.370437
21
1.947555
0
LINE
8
boundary
62
5
10
0.370437
20
1.947555
11
0.427223
21
1.901948
0
LINE
8
boundary
62
5
10
0.427223
20
1.901948
11
0.443346
21
1.890468
0
LINE
8
boundary
62
5
10
0.443346
20
1.890468
11
0.507568
21
1.856487
0
LINE
8
boundary
62
5
10
0.507568
20
1.856487
11
0.525628
21
1.848420
0
LINE
8
boundary
62
5
10
0.525628
20
1.848420
11
0.593916
21
1.825879
0
LINE
8
boundary
62
5
10
0.593916
20
1.825879
11
0.612853
21
1.821070
0
LINE
8
boundary
62
5
10
0.612853
20
1.821070
11
0.684251
21
1.807714
0
LINE
8
boundary
62
5
10
0.684251
20
1.807714
11
0.703845
21
1.805288
0
LINE
8
boundary
62
5
10
0.703845
20
1.805288
11
0.777479
21
1.798768
0
LINE
8
boundary
62
5
10
0.777479
20
1.798768
11
0.797551
21
1.797803
0
LINE
8
boundary
62
5
10
0.797551
20
1.797803
11
0.871837
21
1.795127
0
LINE
8
boundary
62
5
10
0.871837
20
1.795127
11
0.892004
21
1.794708
0
LINE
8
boundary
62
5
10
0.892004
20
1.794708
11
0.966280
21
1.793983
0
LINE
8
boundary
62
5
10
0.966280
20
1.793983
11
0.986404
21
1.793794
0
LINE
8
boundary
62
5
10
0.986404
20
1.793794
11
1.060692
21
1.793584
0
LINE
8
boundary
62
5
10
1.060692
20
1.793584
11
1.080818
21
1.793460
0
LINE
8
boundary
62
5
10
1.080818
20
1.793460
11
1.155115
21
1.793257
0
LINE
8
boundary
62
5
10
1.155115
20
1.793257
11
1.175257
21
1.793179
0
LINE
8
boundary
62
5
10
1.175257
20
1.793179
11
1.246793
21
1.793101
0
LINE
8
boundary
62
5
10
1.246793
20
1.793101
11
1.266193
21
1.793090
0
LINE
8
boundary
62
5
10
1.266193
20
1.793090
11
1.343520
21
1.793127
0
LINE
8
boundary
62
5
10
1.343520
20
1.793127
11
1.364491
21
1.793157
0
LINE
8
boundary
62
5
10
1.364491
20
1.793157
11
1.438874
21
1.793215
0
LINE
8
boundary
62
5
10
1.438874
20
1.793215
11
1.459042
21
1.793238
0
LINE
8
boundary
62
5
10
1.459042
20
1.793238
11
1.533423
21
1.793262
0
LINE
8
boundary
62
5
10
1.533423
20
1.793262
11
1.553589
21
1.793266
0
LINE
8
boundary
62
5
10
1.553589
20
1.793266
11
1.630410
21
1.793258
0
LINE
8
boundary
62
5
10
1.630410
20
1.793258
11
1.651237
21
1.793250
0
LINE
8
boundary
62
5
10
1.651237
20
1.793250
11
1.723172
21
1.793234
0
LINE
8
boundary
62
5
10
1.723172
20
1.793234
11
1.742675
21
1.793228
0
LINE
8
boundary
62
5
10
1.742675
20
1.793228
11
1.819214
21
1.793220
0
LINE
8
boundary
62
5
10
1.819214
20
1.793220
11
1.839966
21
1.793219
0
LINE
8
boundary
62
5
10
1.839966
20
1.793219
11
1.912206
21
1.793221
0
LINE
8
boundary
62
5
10
1.912206
20
1.793221
11
1.931793
21
1.793222
0
LINE
8
boundary
62
5
10
1.931793
20
1.793222
11
2.006180
21
1.793227
0
LINE
8
boundary
62
5
10
2.006180
20
1.793227
11
2.026348
21
1.793229
0
LINE
8
boundary
62
5
10
2.026348
20
1.793229
11
2.100735
21
1.793231
0
LINE
8
boundary
62
5
10
2.100735
20
1.793231
11
2.120903
21
1.793231
0
LINE
8
boundary
62
5
10
2.120903
20
1.793231
11
2.195288
21
1.793231
0
LINE
8
boundary
62
5
10
2.195288
20
1.793231
11
2.215456
21
1.793231
0
LINE
8
boundary
62
5
10
2.215456
20
1.793231
11
2.289843
21
1.793230
0
LINE
8
boundary
62
5
10
2.289843
20
1.793230
11
2.310011
21
1.793230
0
LINE
8
boundary
62
5
10
2.310011
20
1.793230
11
2.384397
21
1.793229
0
LINE
8
boundary
62
5
10
2.384397
20
1.793229
11
2.404566
21
1.793229
0
LINE
8
boundary
62
5
10
2.404566
20
1.793229
11
2.476880
21
1.793229
0
LINE
8
boundary
62
5
10
2.476880
20
1.793229
11
2.496487
21
1.793229
0
LINE
8
boundary
62
5
10
2.496487
20
1.793229
11
2.572946
21
1.793229
0
LINE
8
boundary
62
5
10
2.572946
20
1.793229
11
2.593676
21
1.793229
0
LINE
8
boundary
62
5
10
2.593676
20
1.793229
11
2.668062
21
1.793229
0
LINE
8
boundary
62
5
10
2.668062
20
1.793229
11
2.688231
21
1.793229
0
LINE
8
boundary
62
5
10
2.688231
20
1.793229
11
2.764623
21
1.793229
0
LINE
8
boundary
62
5
10
2.764623
20
1.793229
11
2.785335
21
1.793229
0
LINE
8
boundary
62
5
10
2.785335
20
1.793229
11
2.857716
21
1.793229
0
LINE
8
boundary
62
5
10
2.857716
20
1.793229
11
2.877341
21
1.793229
0
LINE
8
boundary
62
5
10
2.877341
20
1.793229
11
2.951727
21
1.793229
0
LINE
8
boundary
62
5
10
2.951727
20
1.793229
11
2.971895
21
1.793229
0
LINE
8
boundary
62
5
10
2.971895
20
1.793229
11
3.043330
21
1.793229
0
LINE
8
boundary
62
5
10
3.043330
20
1.793229
11
3.062698
21
1.793229
0
LINE
8
boundary
62
5
10
3.062698
20
1.793229
11
3.140036
21
1.793229
0
LINE
8
boundary
62
5
10
3.140036
20
1.793229
11
3.161005
21
1.793229
0
LINE
8
boundary
62
5
10
3.161005
20
1.793229
11
3.235729
21
1.793228
0
LINE
8
boundary
62
5
10
3.235729
20
1.793228
11
3.255989
21
1.793228
0
LINE
8
boundary
62
5
10
3.255989
20
1.793228
11
3.330038
21
1.793229
0
LINE
8
boundary
62
5
10
3.330038
20
1.793229
11
3.350115
21
1.793229
0
LINE
8
boundary
62
5
10
3.350115
20
1.793229
11
3.424501
21
1.793229
0
LINE
8
boundary
62
5
10
3.424501
20
1.793229
11
3.444670
21
1.793230
0
LINE
8
boundary
62
5
10
3.444670
20
1.793230
11
3.519056
21
1.793231
0
LINE
8
boundary
62
5
10
3.519056
20
1.793231
11
3.539225
21
1.793232
0
LINE
8
boundary
62
5
10
3.539225
20
1.793232
11
3.613611
21
1.793231
0
LINE
8
boundary
62
5
10
3.613611
20
1.793231
11
3.633780
21
1.793231
0
LINE
8
boundary
62
5
10
3.633780
20
1.793231
11
3.708166
21
1.793228
0
LINE
8
boundary
62
5
10
3.708166
20
1.793228
11
3.728335
21
1.793227
0
LINE
8
boundary
62
5
10
3.728335
20
1.793227
11
3.802721
21
1.793221
0
LINE
8
boundary
62
5
10
3.802721
20
1.793221
11
3.822890
21
1.793220
0
LINE
8
boundary
62
5
10
3.822890
20
1.793220
11
3.897276
21
1.793220
0
LINE
8
boundary
62
5
10
3.897276
20
1.793220
11
3.917444
21
1.793219
0
LINE
8
boundary
62
5
10
3.917444
20
1.793219
11
3.991830
21
1.793231
0
LINE
8
boundary
62
5
10
3.991830
20
1.793231
11
4.011998
21
1.793235
0
LINE
8
boundary
62
5
10
4.011998
20
1.793235
11
4.086384
21
1.793256
0
LINE
8
boundary
62
5
10
4.086384
20
1.793256
11
4.106552
21
1.793262
0
LINE
8
boundary
62
5
10
4.106552
20
1.793262
11
4.180940
21
1.793265
0
LINE
8
boundary
62
5
10
4.180940
20
1.793265
11
4.201109
21
1.793267
0
LINE
8
boundary
62
5
10
4.201109
20
1.793267
11
4.275105
21
1.793227
0
LINE
8
boundary
62
5
10
4.275105
20
1.793227
11
4.295168
21
1.793216
0
LINE
8
boundary
62
5
10
4.295168
20
1.793216
11
4.369948
21
1.793138
0
LINE
8
boundary
62
5
10
4.369948
20
1.793138
11
4.390224
21
1.793115
0
LINE
8
boundary
62
5
10
4.390224
20
1.793115
11
4.463488
21
1.793090
0
LINE
8
boundary
62
5
10
4.463488
20
1.793090
11
4.483352
21
1.793081
0
LINE
8
boundary
62
5
10
4.483352
20
1.793081
11
4.556229
21
1.793207
0
LINE
8
boundary
62
5
10
4.556229
20
1.793207
11
4.575988
21
1.793241
0
LINE
8
boundary
62
5
10
4.575988
20
1.793241
11
4.652988
21
1.793536
0
LINE
8
boundary
62
5
10
4.652988
20
1.793536
11
4.673865
21
1.793623
0
LINE
8
boundary
62
5
10
4.673865
20
1.793623
11
4.745372
21
1.793752
0
LINE
8
boundary
62
5
10
4.745372
20
1.793752
11
4.764761
21
1.793796
0
LINE
8
boundary
62
5
10
4.764761
20
1.793796
11
4.842070
21
1.793363
0
LINE
8
boundary
62
5
10
4.842070
20
1.793363
11
4.863034
21
1.793248
0
LINE
8
boundary
62
5
10
4.863034
20
1.793248
11
4.937433
21
1.792191
0
LINE
8
boundary
62
5
10
4.937433
20
1.792191
11
4.957608
21
1.791883
0
LINE
8
boundary
62
5
10
4.957608
20
1.791883
11
5.031979
21
1.791295
0
LINE
8
boundary
62
5
10
5.031979
20
1.791295
11
5.052142
21
1.791101
0
LINE
8
boundary
62
5
10
5.052142
20
1.791101
11
5.126377
21
1.792404
0
LINE
8
boundary
62
5
10
5.126377
20
1.792404
11
5.146495
21
1.792743
0
LINE
8
boundary
62
5
10
5.146495
20
1.792743
11
5.220863
21
1.797520
0
LINE
8
boundary
62
5
10
5.220863
20
1.797520
11
5.241023
21
1.798820
0
LINE
8
boundary
62
5
10
5.241023
20
1.798820
11
5.314627
21
1.809814
0
LINE
8
boundary
62
5
10
5.314627
20
1.809814
11
5.334601
21
1.812776
0
LINE
8
boundary
62
5
10
5.334601
20
1.812776
11
5.406155
21
1.833263
0
LINE
8
boundary
62
5
10
5.406155
20
1.833263
11
5.425593
21
1.838734
0
LINE
8
boundary
62
5
10
5.425593
20
1.838734
11
5.492166
21
1.870988
0
LINE
8
boundary
62
5
10
5.492166
20
1.870988
11
5.510272
21
1.879599
0
LINE
8
boundary
62
5
10
5.510272
20
1.879599
11
5.570615
21
1.922877
0
LINE
8
boundary
62
5
10
5.570615
20
1.922877
11
5.587055
21
1.934478
0
LINE
8
boundary
62
5
10
5.587055
20
1.934478
11
5.639311
21
1.986162
0
LINE
8
boundary
62
5
10
5.639311
20
1.986162
11
5.653591
21
2.000055
0
LINE
8
boundary
62
5
10
5.653591
20
2.000055
11
5.698320
21
2.060380
0
LINE
8
boundary
62
5
10
5.698320
20
2.060380
11
5.710600
21
2.076626
0
LINE
8
boundary
62
5
10
5.710600
20
2.076626
11
5.745334
21
2.142324
0
LINE
8
boundary
62
5
10
5.745334
20
2.142324
11
5.754940
21
2.160045
0
LINE
8
boundary
62
5
10
5.754940
20
2.160045
11
5.780193
21
2.233589
0
LINE
8
boundary
62
5
10
5.780193
20
2.233589
11
5.787280
21
2.253462
0
LINE
8
boundary
62
5
10
5.787280
20
2.253462
11
5.799629
21
2.323278
0
LINE
8
boundary
62
5
10
5.799629
20
2.323278
11
5.803203
21
2.342175
0
LINE
8
boundary
62
5
10
5.803203
20
2.342175
11
5.806701
21
2.416391
0
LINE
8
boundary
62
5
10
5.806701
20
2.416391
11
5.807764
21
2.436495
0
LINE
8
boundary
62
5
10
5.807764
20
2.436495
11
5.804598
21
2.508967
0
LINE
8
boundary
62
5
10
5.804598
20
2.508967
11
5.803618
21
2.528598
0
LINE
8
boundary
62
5
10
5.803618
20
2.528598
11
5.796123
21
2.604169
0
LINE
8
boundary
62
5
10
5.796123
20
2.604169
11
5.793618
21
2.624619
0
LINE
8
boundary
62
5
10
5.793618
20
2.624619
11
5.782385
21
2.699392
0
LINE
8
boundary
62
5
10
5.782385
20
2.699392
11
5.778501
21
2.719549
0
LINE
8
boundary
62
5
10
5.778501
20
2.719549
11
5.763545
21
2.788474
0
LINE
8
boundary
62
5
10
5.763545
20
2.788474
11
5.758351
21
2.806905
0
LINE
8
boundary
62
5
10
5.758351
20
2.806905
11
5.737709
21
2.874638
0
LINE
8
boundary
62
5
10
5.737709
20
2.874638
11
5.730584
21
2.892511
0
LINE
8
boundary
62
5
10
5.730584
20
2.892511
11
5.704463
21
2.956695
0
LINE
8
boundary
62
5
10
5.704463
20
2.956695
11
5.695535
21
2.973343
0
LINE
8
boundary
62
5
10
5.695535
20
2.973343
11
5.665360
21
3.034760
0
LINE
8
boundary
62
5
10
5.665360
20
3.034760
11
5.655171
21
3.050457
0
LINE
8
boundary
62
5
10
5.655171
20
3.050457
11
5.622541
21
3.110218
0
LINE
8
boundary
62
5
10
5.622541
20
3.110218
11
5.611695
21
3.125348
0
LINE
8
boundary
62
5
10
5.611695
20
3.125348
11
5.576501
21
3.184379
0
LINE
8
boundary
62
5
10
5.576501
20
3.184379
11
5.565141
21
3.199296
0
LINE
8
boundary
62
5
10
5.565141
20
3.199296
11
5.525231
21
3.257313
0
LINE
8
boundary
62
5
10
5.525231
20
3.257313
11
5.512910
21
3.272039
0
LINE
8
boundary
62
5
10
5.512910
20
3.272039
11
5.466190
21
3.327664
0
LINE
8
boundary
62
5
10
5.466190
20
3.327664
11
5.452483
21
3.341935
0
LINE
8
boundary
62
5
10
5.452483
20
3.341935
11
5.400086
21
3.393554
0
LINE
8
boundary
62
5
10
5.400086
20
3.393554
11
5.385299
21
3.406987
0
LINE
8
boundary
62
5
10
5.385299
20
3.406987
11
5.329450
21
3.455579
0
LINE
8
boundary
62
5
10
5.329450
20
3.455579
11
5.314032
21
3.468403
0
LINE
8
boundary
62
5
10
5.314032
20
3.468403
11
5.255692
21
3.515835
0
LINE
8
boundary
62
5
10
5.255692
20
3.515835
11
5.239764
21
3.528522
0
LINE
8
boundary
62
5
10
5.239764
20
3.528522
11
5.182240
21
3.573932
0
LINE
8
boundary
62
5
10
5.182240
20
3.573932
11
5.166626
21
3.586218
0
LINE
8
boundary
62
5
10
5.166626
20
3.586218
11
5.107774
21
3.632255
0
LINE
8
boundary
62
5
10
5.107774
20
3.632255
11
5.091875
21
3.644822
0
LINE
8
boundary
62
5
10
5.091875
20
3.644822
11
5.034854
21
3.689921
0
LINE
8
boundary
62
5
10
5.034854
20
3.689921
11
5.019512
21
3.702306
0
LINE
8
boundary
62
5
10
5.019512
20
3.702306
11
4.960834
21
3.750070
0
LINE
8
boundary
62
5
10
4.960834
20
3.750070
11
4.945106
21
3.763244
0
LINE
8
boundary
62
5
10
4.945106
20
3.763244
11
4.889668
21
3.810053
0
LINE
8
boundary
62
5
10
4.889668
20
3.810053
11
4.874866
21
3.823013
0
LINE
8
boundary
62
5
10
4.874866
20
3.823013
11
4.818007
21
3.873144
0
LINE
8
boundary
62
5
10
4.818007
20
3.873144
11
4.802887
21
3.887070
0
LINE
8
boundary
62
5
10
4.802887
20
3.887070
11
4.748571
21
3.937438
0
LINE
8
boundary
62
5
10
4.748571
20
3.937438
11
4.734188
21
3.951466
0
LINE
8
boundary
62
5
10
4.734188
20
3.951466
11
4.681348
21
4.003284
0
LINE
8
boundary
62
5
10
4.681348
20
4.003284
11
4.667414
21
4.017735
0
LINE
8
boundary
62
5
10
4.667414
20
4.017735
11
4.616217
21
4.071116
0
LINE
8
boundary
62
5
10
4.616217
20
4.071116
11
4.602767
21
4.086005
0
LINE
8
boundary
62
5
10
4.602767
20
4.086005
11
4.553393
21
4.141023
0
LINE
8
boundary
62
5
10
4.553393
20
4.141023
11
4.540468
21
4.156356
0
LINE
8
boundary
62
5
10
4.540468
20
4.156356
11
4.493069
21
4.213056
0
LINE
8
boundary
62
5
10
4.493069
20
4.213056
11
4.480703
21
4.228837
0
LINE
8
boundary
62
5
10
4.480703
20
4.228837
11
4.435443
21
4.287251
0
LINE
8
boundary
62
5
10
4.435443
20
4.287251
11
4.423675
21
4.303480
0
LINE
8
boundary
62
5
10
4.423675
20
4.303480
11
4.380726
21
4.363612
0
LINE
8
boundary
62
5
10
4.380726
20
4.363612
11
4.369598
21
4.380285
0
LINE
8
boundary
62
5
10
4.369598
20
4.380285
11
4.329043
21
4.442061
0
LINE
8
boundary
62
5
10
4.329043
20
4.442061
11
4.318577
21
4.459159
0
LINE
8
boundary
62
5
10
4.318577
20
4.459159
11
4.279946
21
4.523410
0
LINE
8
boundary
62
5
10
4.279946
20
4.523410
11
4.270023
21
4.541163
0
LINE
8
boundary
62
5
10
4.270023
20
4.541163
11
4.234986
21
4.605003
0
LINE
8
boundary
62
5
10
4.234986
20
4.605003
11
4.226035
21
4.622614
0
LINE
8
boundary
62
5
10
4.226035
20
4.622614
11
4.193089
21
4.688757
0
LINE
8
boundary
62
5
10
4.193089
20
4.688757
11
4.184727
21
4.706975
0
LINE
8
boundary
62
5
10
4.184727
20
4.706975
11
4.154534
21
4.774408
0
LINE
8
boundary
62
5
10
4.154534
20
4.774408
11
4.146935
21
4.792955
0
LINE
8
boundary
62
5
10
4.146935
20
4.792955
11
4.119625
21
4.861594
0
LINE
8
boundary
62
5
10
4.119625
20
4.861594
11
4.112825
21
4.880446
0
LINE
8
boundary
62
5
10
4.112825
20
4.880446
11
4.089571
21
4.946933
0
LINE
8
boundary
62
5
10
4.089571
20
4.946933
11
4.083861
21
4.965170
0
LINE
8
boundary
62
5
10
4.083861
20
4.965170
11
4.061538
21
5.039328
0
LINE
8
boundary
62
5
10
4.061538
20
5.039328
11
4.056164
21
5.059640
0
LINE
8
boundary
62
5
10
4.056164
20
5.059640
11
4.038207
21
5.131018
0
LINE
8
boundary
62
5
10
4.038207
20
5.131018
11
4.034007
21
5.150539
0
LINE
8
boundary
62
5
10
4.034007
20
5.150539
11
4.018687
21
5.226253
0
LINE
8
boundary
62
5
10
4.018687
20
5.226253
11
4.015256
21
5.246929
0
LINE
8
boundary
62
5
10
4.015256
20
5.246929
11
4.004507
21
5.316412
0
LINE
8
boundary
62
5
10
4.004507
20
5.316412
11
4.002259
21
5.335355
0
LINE
8
boundary
62
5
10
4.002259
20
5.335355
11
3.994294
21
5.408709
0
LINE
8
boundary
62
5
10
3.994294
20
5.408709
11
3.992834
21
5.428674
0
LINE
8
boundary
62
5
10
3.992834
20
5.428674
11
3.988267
21
5.502334
0
LINE
8
boundary
62
5
10
3.988267
20
5.502334
11
3.987719
21
5.522348
0
LINE
8
boundary
62
5
10
3.987719
20
5.522348
11
3.986507
21
5.596183
0
LINE
8
boundary
62
5
10
3.986507
20
5.596183
11
3.986847
21
5.616214
0
LINE
8
boundary
62
5
10
3.986847
20
5.616214
11
3.988948
21
5.690079
0
LINE
8
boundary
62
5
10
3.988948
20
5.690079
11
3.990154
21
5.710089
0
LINE
8
boundary
62
5
10
3.990154
20
5.710089
11
3.995455
21
5.783843
0
LINE
8
boundary
62
5
10
3.995455
20
5.783843
11
3.997491
21
5.803797
0
LINE
8
boundary
62
5
10
3.997491
20
5.803797
11
4.005812
21
5.877329
0
LINE
8
boundary
62
5
10
4.005812
20
5.877329
11
4.008625
21
5.897203
0
LINE
8
boundary
62
5
10
4.008625
20
5.897203
11
4.019455
21
5.968485
0
LINE
8
boundary
62
5
10
4.019455
20
5.968485
11
4.022889
21
5.987737
0
LINE
8
boundary
62
5
10
4.022889
20
5.987737
11
4.037023
21
6.062486
0
LINE
8
boundary
62
5
10
4.037023
20
6.062486
11
4.041333
21
6.082663
0
LINE
8
boundary
62
5
10
4.041333
20
6.082663
11
4.057579
21
6.155021
0
LINE
8
boundary
62
5
10
4.057579
20
6.155021
11
4.062403
21
6.174545
0
LINE
8
boundary
62
5
10
4.062403
20
6.174545
11
4.081628
21
6.249062
0
LINE
8
boundary
62
5
10
4.081628
20
6.249062
11
4.087230
21
6.269166
0
LINE
8
boundary
62
5
10
4.087230
20
6.269166
11
4.107060
21
6.337841
0
LINE
8
boundary
62
5
10
4.107060
20
6.337841
11
4.112761
21
6.356368
0
LINE
8
boundary
62
5
10
4.112761
20
6.356368
11
4.135850
21
6.429086
0
LINE
8
boundary
62
5
10
4.135850
20
6.429086
11
4.142423
21
6.448703
0
LINE
8
boundary
62
5
10
4.142423
20
6.448703
11
4.166142
21
6.517495
0
LINE
8
boundary
62
5
10
4.166142
20
6.517495
11
4.172846
21
6.536052
0
LINE
8
boundary
62
5
10
4.172846
20
6.536052
11
4.198453
21
6.605236
0
LINE
8
boundary
62
5
10
4.198453
20
6.605236
11
4.205652
21
6.623900
0
LINE
8
boundary
62
5
10
4.205652
20
6.623900
11
4.233029
21
6.693214
0
LINE
8
boundary
62
5
10
4.233029
20
6.693214
11
4.240693
21
6.711912
0
LINE
8
boundary
62
5
10
4.240693
20
6.711912
11
4.269334
21
6.780241
0
LINE
8
boundary
62
5
10
4.269334
20
6.780241
11
4.277327
21
6.798672
0
LINE
8
boundary
62
5
10
4.277327
20
6.798672
11
4.307414
21
6.866626
0
LINE
8
boundary
62
5
10
4.307414
20
6.866626
11
4.315790
21
6.884954
0
LINE
8
boundary
62
5
10
4.315790
20
6.884954
11
4.347208
21
6.952306
0
LINE
8
boundary
62
5
10
4.347208
20
6.952306
11
4.355938
21
6.970469
0
LINE
8
boundary
62
5
10
4.355938
20
6.970469
11
4.388666
21
7.037197
0
LINE
8
boundary
62
5
10
4.388666
20
7.037197
11
4.397746
21
7.055188
0
LINE
8
boundary
62
5
10
4.397746
20
7.055188
11
4.431768
21
7.121267
0
LINE
8
boundary
62
5
10
4.431768
20
7.121267
11
4.441196
21
7.139079
0
LINE
8
boundary
62
5
10
4.441196
20
7.139079
11
4.476515
21
7.204474
0
LINE
8
boundary
62
5
10
4.476515
20
7.204474
11
4.486293
21
7.222096
0
LINE
8
boundary
62
5
10
4.486293
20
7.222096
11
4.522920
21
7.286762
0
LINE
8
boundary
62
5
10
4.522920
20
7.286762
11
4.533054
21
7.304180
0
LINE
8
boundary
62
5
10
4.533054
20
7.304180
11
4.571001
21
7.368074
0
LINE
8
boundary
62
5
10
4.571001
20
7.368074
11
4.581495
21
7.385276
0
LINE
8
boundary
62
5
10
4.581495
20
7.385276
11
4.620765
21
7.448366
0
LINE
8
boundary
62
5
10
4.620765
20
7.448366
11
4.631617
21
7.465345
0
LINE
8
boundary
62
5
10
4.631617
20
7.465345
11
4.672235
21
7.527687
0
LINE
8
boundary
62
5
10
4.672235
20
7.527687
11
4.683447
21
7.544461
0
LINE
8
boundary
62
5
10
4.683447
20
7.544461
11
4.725236
21
7.605818
0
LINE
8
boundary
62
5
10
4.725236
20
7.605818
11
4.736754
21
7.622326
0
LINE
8
boundary
62
5
10
4.736754
20
7.622326
11
4.779791
21
7.682930
0
LINE
8
boundary
62
5
10
4.779791
20
7.682930
11
4.791634
21
7.699239
0
LINE
8
boundary
62
5
10
4.791634
20
7.699239
11
4.835791
21
7.759043
0
LINE
8
boundary
62
5
10
4.835791
20
7.759043
11
4.847920
21
7.775142
0
LINE
8
boundary
62
5
10
4.847920
20
7.775142
11
4.893117
21
7.834176
0
LINE
8
boundary
62
5
10
4.893117
20
7.834176
11
4.905510
21
7.850076
0
LINE
8
boundary
62
5
10
4.905510
20
7.850076
11
4.950643
21
7.907162
0
LINE
8
boundary
62
5
10
4.950643
20
7.907162
11
4.962997
21
7.922547
0
LINE
8
boundary
62
5
10
4.962997
20
7.922547
11
5.012222
21
7.983061
0
LINE
8
boundary
62
5
10
5.012222
20
7.983061
11
5.025674
21
7.999383
0
LINE
8
boundary
62
5
10
5.025674
20
7.999383
11
5.071965
21
8.054940
0
LINE
8
boundary
62
5
10
5.071965
20
8.054940
11
5.084595
21
8.069937
0
LINE
8
boundary
62
5
10
5.084595
20
8.069937
11
5.132708
21
8.126659
0
LINE
8
boundary
62
5
10
5.132708
20
8.126659
11
5.145814
21
8.141986
0
LINE
8
boundary
62
5
10
5.145814
20
8.141986
11
5.194216
21
8.198468
0
LINE
8
boundary
62
5
10
5.194216
20
8.198468
11
5.207372
21
8.213754
0
LINE
8
boundary
62
5
10
5.207372
20
8.213754
11
5.255836
21
8.270188
0
LINE
8
boundary
62
5
10
5.255836
20
8.270188
11
5.268973
21
8.285492
0
LINE
8
boundary
62
5
10
5.268973
20
8.285492
11
5.317211
21
8.342114
0
LINE
8
boundary
62
5
10
5.317211
20
8.342114
11
5.330246
21
8.357503
0
LINE
8
boundary
62
5
10
5.330246
20
8.357503
11
5.377927
21
8.414571
0
LINE
8
boundary
62
5
10
5.377927
20
8.414571
11
5.390768
21
8.430116
0
LINE
8
boundary
62
5
10
5.390768
20
8.430116
11
5.437560
21
8.487889
0
LINE
8
boundary
62
5
10
5.437560
20
8.487889
11
5.450114
21
8.503661
0
LINE
8
boundary
62
5
10
5.450114
20
8.503661
11
5.495613
21
8.562433
0
LINE
8
boundary
62
5
10
5.495613
20
8.562433
11
5.507765
21
8.578511
0
LINE
8
boundary
62
5
10
5.507765
20
8.578511
11
5.551356
21
8.638641
0
LINE
8
boundary
62
5
10
5.551356
20
8.638641
11
5.562927
21
8.655123
0
LINE
8
boundary
62
5
10
5.562927
20
8.655123
11
5.603888
21
8.716861
0
LINE
8
boundary
62
5
10
5.603888
20
8.716861
11
5.614665
21
8.733820
0
LINE
8
boundary
62
5
10
5.614665
20
8.733820
11
5.652423
21
8.797797
0
LINE
8
boundary
62
5
10
5.652423
20
8.797797
11
5.662237
21
8.815400
0
LINE
8
boundary
62
5
10
5.662237
20
8.815400
11
5.694358
21
8.878626
0
LINE
8
boundary
62
5
10
5.694358
20
8.878626
11
5.702563
21
8.896027
0
LINE
8
boundary
62
5
10
5.702563
20
8.896027
11
5.731950
21
8.966816
0
LINE
8
boundary
62
5
10
5.731950
20
8.966816
11
5.739249
21
8.986272
0
LINE
8
boundary
62
5
10
5.739249
20
8.986272
11
5.761296
21
9.056330
0
LINE
8
boundary
62
5
10
5.761296
20
9.056330
11
5.766526
21
9.075542
0
LINE
8
boundary
62
5
10
5.766526
20
9.075542
11
5.782633
21
9.147408
0
LINE
8
boundary
62
5
10
5.782633
20
9.147408
11
5.786258
21
9.167063
0
LINE
8
boundary
62
5
10
5.786258
20
9.167063
11
5.797035
21
9.242715
0
LINE
8
boundary
62
5
10
5.797035
20
9.242715
11
5.799340
21
9.263337
0
LINE
8
boundary
62
5
10
5.799340
20
9.263337
11
5.804861
21
9.335173
0
LINE
8
boundary
62
5
10
5.804861
20
9.335173
11
5.805991
21
9.354692
0
LINE
8
boundary
62
5
10
5.805991
20
9.354692
11
5.808578
21
9.430785
0
LINE
8
boundary
62
5
10
5.808578
20
9.430785
11
5.809075
21
9.451418
0
LINE
8
boundary
62
5
10
5.809075
20
9.451418
11
5.809855
21
9.523865
0
LINE
8
boundary
62
5
10
5.809855
20
9.523865
11
5.809984
21
9.543499
0
LINE
8
boundary
62
5
10
5.809984
20
9.543499
11
5.810228
21
9.617874
0
LINE
8
boundary
62
5
10
5.810228
20
9.617874
11
5.810277
21
9.638037
0
LINE
8
boundary
62
5
10
5.810277
20
9.638037
11
5.810256
21
9.712430
0
LINE
8
boundary
62
5
10
5.810256
20
9.712430
11
5.810267
21
9.732603
0
LINE
8
boundary
62
5
10
5.810267
20
9.732603
11
5.810074
21
9.807010
0
LINE
8
boundary
62
5
10
5.810074
20
9.807010
11
5.810034
21
9.827186
0
LINE
8
boundary
62
5
10
5.810034
20
9.827186
11
5.809771
21
9.901535
0
LINE
8
boundary
62
5
10
5.809771
20
9.901535
11
5.809683
21
9.921691
0
LINE
8
boundary
62
5
10
5.809683
20
9.921691
11
5.809475
21
9.996037
0
LINE
8
boundary
62
5
10
5.809475
20
9.996037
11
5.809395
21
10.016191
0
LINE
8
boundary
62
5
10
5.809395
20
10.016191
11
5.809522
21
10.088389
0
LINE
8
boundary
62
5
10
5.809522
20
10.088389
11
5.809568
21
10.107966
0
LINE
8
boundary
62
5
10
5.809568
20
10.107966
11
5.810305
21
10.184734
0
LINE
8
boundary
62
5
10
5.810305
20
10.184734
11
5.810587
21
10.205561
0
LINE
8
boundary
62
5
10
5.810587
20
10.205561
11
5.811202
21
10.280105
0
LINE
8
boundary
62
5
10
5.811202
20
10.280105
11
5.811432
21
10.300328
0
LINE
8
boundary
62
5
10
5.811432
20
10.300328
11
5.810155
21
10.376382
0
LINE
8
boundary
62
5
10
5.810155
20
10.376382
11
5.809679
21
10.396990
0
LINE
8
boundary
62
5
10
5.809679
20
10.396990
11
5.804894
21
10.468881
0
LINE
8
boundary
62
5
10
5.804894
20
10.468881
11
5.803162
21
10.488319
0
LINE
8
boundary
62
5
10
5.803162
20
10.488319
11
5.792000
21
10.561055
0
LINE
8
boundary
62
5
10
5.792000
20
10.561055
11
5.788264
21
10.580661
0
LINE
8
boundary
62
5
10
5.788264
20
10.580661
11
5.769431
21
10.648710
0
LINE
8
boundary
62
5
10
5.769431
20
10.648710
11
5.763541
21
10.666956
0
LINE
8
boundary
62
5
10
5.763541
20
10.666956
11
5.732167
21
10.736639
0
LINE
8
boundary
62
5
10
5.732167
20
10.736639
11
5.722859
21
10.755176
0
LINE
8
boundary
62
5
10
5.722859
20
10.755176
11
5.681972
21
10.816644
0
LINE
8
annotation
62
1
10
4.642428
20
3.672688
11
4.642428
21
3.967759
0
LINE
8
annotation
62
1
10
4.642428
20
3.967759
11
4.576830
21
3.902142
0
LINE
8
annotation
62
1
10
1.611328
20
3.860544
11
1.611328
21
4.079903
0
LINE
8
annotation
62
1
10
1.611328
20
4.079903
11
1.562562
21
4.031123
0
LINE
8
annotation
62
1
10
5.720173
20
9.050599
11
5.623847
21
9.050599
0
LINE
8
annotation
62
1
10
5.623847
20
9.050599
11
5.712855
21
9.193891
0
LINE
8
annotation
62
1
10
5.712855
20
9.193891
11
5.712855
21
9.193891
0
LINE
8
annotation
62
1
10
5.712855
20
9.193891
11
5.712962
21
9.194023
0
LINE
8
annotation
62
1
10
5.712962
20
9.194023
11
5.713064
21
9.194156
0
LINE
8
annotation
62
1
10
5.713064
20
9.194156
11
5.713162
21
9.194291
0
LINE
8
annotation
62
1
10
5.713162
20
9.194291
11
5.713257
21
9.194429
0
LINE
8
annotation
62
1
10
5.713257
20
9.194429
11
5.713350
21
9.194572
0
LINE
8
annotation
62
1
10
5.713350
20
9.194572
11
5.713442
21
9.194720
0
LINE
8
annotation
62
1
10
5.713442
20
9.194720
11
5.713532
21
9.194875
0
LINE
8
annotation
62
1
10
5.713532
20
9.194875
11
5.713622
21
9.195038
0
LINE
8
annotation
62
1
10
5.713622
20
9.195038
11
5.713712
21
9.195210
0
LINE
8
annotation
62
1
10
5.713712
20
9.195210
11
5.713712
21
9.195210
0
LINE
8
annotation
62
1
10
5.713712
20
9.195210
11
5.717387
21
9.203101
0
LINE
8
annotation
62
1
10
5.717387
20
9.203101
11
5.719534
21
9.211281
0
LINE
8
annotation
62
1
10
5.719534
20
9.211281
11
5.720206
21
9.219564
0
LINE
8
annotation
62
1
10
5.720206
20
9.219564
11
5.719454
21
9.227767
0
LINE
8
annotation
62
1
10
5.719454
20
9.227767
11
5.717332
21
9.235703
0
LINE
8
annotation
62
1
10
5.717332
20
9.235703
11
5.713893
21
9.243190
0
LINE
8
annotation
62
1
10
5.713893
20
9.243190
11
5.709188
21
9.250040
0
LINE
8
annotation
62
1
10
5.709188
20
9.250040
11
5.703271
21
9.256071
0
LINE
8
annotation
62
1
10
5.703271
20
9.256071
11
5.696193
21
9.261096
0
LINE
8
annotation
62
1
10
5.696193
20
9.261096
11
5.696193
21
9.261096
0
LINE
8
annotation
62
1
10
5.696193
20
9.261096
11
5.688281
21
9.264719
0
LINE
8
annotation
62
1
10
5.688281
20
9.264719
11
5.680089
21
9.266833
0
LINE
8
annotation
62
1
10
5.680089
20
9.266833
11
5.671800
21
9.267485
0
LINE
8
annotation
62
1
10
5.671800
20
9.267485
11
5.663599
21
9.266724
0
LINE
8
annotation
62
1
10
5.663599
20
9.266724
11
5.655668
21
9.264596
0
LINE
8
annotation
62
1
10
5.655668
20
9.264596
11
5.648190
21
9.261150
0
LINE
8
annotation
62
1
10
5.648190
20
9.261150
11
5.641349
21
9.256432
0
LINE
8
annotation
62
1
10
5.641349
20
9.256432
11
5.635327
21
9.250491
0
LINE
8
annotation
62
1
10
5.635327
20
9.250491
11
5.630308
21
9.243373
0
LINE
8
annotation
62
1
10
5.630308
20
9.243373
11
5.623983
21
9.231241
0
LINE
8
annotation
62
1
10
3.642405
20
9.058999
11
3.553540
21
9.058999
0
LINE
8
annotation
62
1
10
3.553540
20
9.058999
11
3.635654
21
9.191192
0
LINE
8
annotation
62
1
10
3.635654
20
9.191192
11
3.635654
21
9.191192
0
LINE
8
annotation
62
1
10
3.635654
20
9.191192
11
3.635753
21
9.191314
0
LINE
8
annotation
62
1
10
3.635753
20
9.191314
11
3.635847
21
9.191436
0
LINE
8
annotation
62
1
10
3.635847
20
9.191436
11
3.635937
21
9.191561
0
LINE
8
annotation
62
1
10
3.635937
20
9.191561
11
3.636025
21
9.191688
0
LINE
8
annotation
62
1
10
3.636025
20
9.191688
11
3.636111
21
9.191820
0
LINE
8
annotation
62
1
10
3.636111
20
9.191820
11
3.636195
21
9.191957
0
LINE
8
annotation
62
1
10
3.636195
20
9.191957
11
3.636279
21
9.192100
0
LINE
8
annotation
62
1
10
3.636279
20
9.192100
11
3.636362
21
9.192251
0
LINE
8
annotation
62
1
10
3.636362
20
9.192251
11
3.636445
21
9.192409
0
LINE
8
annotation
62
1
10
3.636445
20
9.192409
11
3.636445
21
9.192409
0
LINE
8
annotation
62
1
10
3.636445
20
9.192409
11
3.639835
21
9.199689
0
LINE
8
annotation
62
1
10
3.639835
20
9.199689
11
3.641816
21
9.207235
0
LINE
8
annotation
62
1
10
3.641816
20
9.207235
11
3.642436
21
9.214877
0
LINE
8
annotation
62
1
10
3.642436
20
9.214877
11
3.641742
21
9.222444
0
LINE
8
annotation
62
1
10
3.641742
20
9.222444
11
3.639785
21
9.229766
0
LINE
8
annotation
62
1
10
3.639785
20
9.229766
11
3.636611
21
9.236672
0
LINE
8
annotation
62
1
10
3.636611
20
9.236672
11
3.632271
21
9.242992
0
LINE
8
annotation
62
1
10
3.632271
20
9.242992
11
3.626812
21
9.248556
0
LINE
8
annotation
62
1
10
3.626812
20
9.248556
11
3.620283
21
9.253192
0
LINE
8
annotation
62
1
10
3.620283
20
9.253192
11
3.620283
21
9.253192
0
LINE
8
annotation
62
1
10
3.620283
20
9.253192
11
3.612983
21
9.256534
0
LINE
8
annotation
62
1
10
3.612983
20
9.256534
11
3.605426
21
9.258484
0
LINE
8
annotation
62
1
10
3.605426
20
9.258484
11
3.597780
21
9.259086
0
LINE
8
annotation
62
1
10
3.597780
20
9.259086
11
3.590213
21
9.258384
0
LINE
8
annotation
62
1
10
3.590213
20
9.258384
11
3.582897
21
9.256421
0
LINE
8
annotation
62
1
10
3.582897
20
9.256421
11
3.575998
21
9.253241
0
LINE
8
annotation
62
1
10
3.575998
20
9.253241
11
3.569687
21
9.248889
0
LINE
8
annotation
62
1
10
3.569687
20
9.248889
11
3.564131
21
9.243408
0
LINE
8
annotation
62
1
10
3.564131
20
9.243408
11
3.559501
21
9.236842
0
LINE
8
annotation
62
1
10
3.559501
20
9.236842
11
3.553666
21
9.225649
0
LINE
8
annotation
62
1
10
2.727251
20
6.167610
11
2.607784
21
5.994813
0
LINE
8
annotation
62
1
10
2.607784
20
5.994813
11
2.488295
21
6.167610
0
LINE
8
annotation
62
1
10
2.607784
20
6.008719
11
2.607784
21
5.809368
0
LINE
8
annotation
62
1
10
3.057496
20
5.988489
11
2.861628
21
5.988489
0
LINE
8
annotation
62
1
10
3.271443
20
5.809379
11
3.271443
21
6.167599
0
LINE
8
annotation
62
1
10
3.271443
20
6.167599
11
3.191806
21
6.087940
0
LINE
8
hole
62
5
10
10.625418
20
8.872570
11
10.640530
21
8.861110
0
LINE
8
hole
62
5
10
10.640530
20
8.861110
11
10.657273
21
8.848842
0
LINE
8
hole
62
5
10
10.657273
20
8.848842
11
10.670891
21
8.835317
0
LINE
8
hole
62
5
10
10.670891
20
8.835317
11
10.685909
21
8.820626
0
LINE
8
hole
62
5
10
10.685909
20
8.820626
11
10.697295
21
8.805589
0
LINE
8
hole
62
5
10
10.697295
20
8.805589
11
10.709722
21
8.789097
0
LINE
8
hole
62
5
10
10.709722
20
8.789097
11
10.718928
21
8.772512
0
LINE
8
hole
62
5
10
10.718928
20
8.772512
11
10.728777
21
8.754231
0
LINE
8
hole
62
5
10
10.728777
20
8.754231
11
10.735469
21
8.736727
0
LINE
8
hole
62
5
10
10.735469
20
8.736727
11
10.742350
21
8.717414
0
LINE
8
hole
62
5
10
10.742350
20
8.717414
11
10.747037
21
8.699333
0
LINE
8
hole
62
5
10
10.747037
20
8.699333
11
10.751602
21
8.679404
0
LINE
8
hole
62
5
10
10.751602
20
8.679404
11
10.755258
21
8.660831
0
LINE
8
hole
62
5
10
10.755258
20
8.660831
11
10.758745
21
8.640402
0
LINE
8
hole
62
5
10
10.758745
20
8.640402
11
10.761659
21
8.621902
0
LINE
8
hole
62
5
10
10.761659
20
8.621902
11
10.764468
21
8.601596
0
LINE
8
hole
62
5
10
10.764468
20
8.601596
11
10.766594
21
8.582754
0
LINE
8
hole
62
5
10
10.766594
20
8.582754
11
10.768649
21
8.562100
0
LINE
8
hole
62
5
10
10.768649
20
8.562100
11
10.769922
21
8.543116
0
LINE
8
hole
62
5
10
10.769922
20
8.543116
11
10.771146
21
8.522322
0
LINE
8
hole
62
5
10
10.771146
20
8.522322
11
10.771636
21
8.503272
0
LINE
8
hole
62
5
10
10.771636
20
8.503272
11
10.772105
21
8.482412
0
LINE
8
hole
62
5
10
10.772105
20
8.482412
11
10.772103
21
8.463355
0
LINE
8
hole
62
5
10
10.772103
20
8.463355
11
10.772101
21
8.442492
0
LINE
8
hole
62
5
10
10.772101
20
8.442492
11
10.772027
21
8.423435
0
LINE
8
hole
62
5
10
10.772027
20
8.423435
11
10.771957
21
8.402572
0
LINE
8
hole
62
5
10
10.771957
20
8.402572
11
10.771969
21
8.383513
0
LINE
8
hole
62
5
10
10.771969
20
8.383513
11
10.771981
21
8.362645
0
LINE
8
hole
62
5
10
10.771981
20
8.362645
11
10.772003
21
8.343585
0
LINE
8
hole
62
5
10
10.772003
20
8.343585
11
10.772025
21
8.322717
0
LINE
8
hole
62
5
10
10.772025
20
8.322717
11
10.772023
21
8.303658
0
LINE
8
hole
62
5
10
10.772023
20
8.303658
11
10.772021
21
8.282791
0
LINE
8
hole
62
5
10
10.772021
20
8.282791
11
10.772015
21
8.263784
0
LINE
8
hole
62
5
10
10.772015
20
8.263784
11
10.772008
21
8.242974
0
LINE
8
hole
62
5
10
10.772008
20
8.242974
11
10.772008
21
8.223863
0
LINE
8
hole
62
5
10
10.772008
20
8.223863
11
10.772008
21
8.202939
0
LINE
8
hole
62
5
10
10.772008
20
8.202939
11
10.772010
21
8.184324
0
LINE
8
hole
62
5
10
10.772010
20
8.184324
11
10.772012
21
8.163944
0
LINE
8
hole
62
5
10
10.772012
20
8.163944
11
10.772012
21
8.144440
0
LINE
8
hole
62
5
10
10.772012
20
8.144440
11
10.772013
21
8.123086
0
LINE
8
hole
62
5
10
10.772013
20
8.123086
11
10.772012
21
8.104027
0
LINE
8
hole
62
5
10
10.772012
20
8.104027
11
10.772011
21
8.083160
0
LINE
8
hole
62
5
10
10.772011
20
8.083160
11
10.772011
21
8.064100
0
LINE
8
hole
62
5
10
10.772011
20
8.064100
11
10.772010
21
8.043232
0
LINE
8
hole
62
5
10
10.772010
20
8.043232
11
10.772011
21
8.024431
0
LINE
8
hole
62
5
10
10.772011
20
8.024431
11
10.772011
21
8.003847
0
LINE
8
hole
62
5
10
10.772011
20
8.003847
11
10.772013
21
7.984531
0
LINE
8
hole
62
5
10
10.772013
20
7.984531
11
10.772015
21
7.963383
0
LINE
8
hole
62
5
10
10.772015
20
7.963383
11
10.772014
21
7.944324
0
LINE
8
hole
62
5
10
10.772014
20
7.944324
11
10.772013
21
7.923457
0
LINE
8
hole
62
5
10
10.772013
20
7.923457
11
10.771921
21
7.904393
0
LINE
8
hole
62
5
10
10.771921
20
7.904393
11
10.771824
21
7.883521
0
LINE
8
hole
62
5
10
10.771824
20
7.883521
11
10.771100
21
7.864481
0
LINE
8
hole
62
5
10
10.771100
20
7.864481
11
10.770307
21
7.843636
0
LINE
8
hole
62
5
10
10.770307
20
7.843636
11
10.769130
21
7.832431
0
LINE
8
hole
62
5
10
10.769130
20
7.832431
11
10.769130
21
7.832431
0
LINE
8
hole
62
5
10
10.769130
20
7.832431
11
10.787880
21
7.813681
0
LINE
8
hole
62
5
10
10.787880
20
7.813681
11
10.987701
21
7.813681
0
LINE
8
hole
62
5
10
10.987701
20
7.813681
11
11.007977
21
7.827229
0
LINE
8
hole
62
5
10
11.007977
20
7.827229
11
11.031895
21
7.831986
0
LINE
8
hole
62
5
10
11.031895
20
7.831986
11
11.055813
21
7.827229
0
LINE
8
hole
62
5
10
11.055813
20
7.827229
11
11.076089
21
7.813681
0
LINE
8
hole
62
5
10
11.076089
20
7.813681
11
11.089637
21
7.793404
0
LINE
8
hole
62
5
10
11.089637
20
7.793404
11
11.094395
21
7.769486
0
LINE
8
hole
62
5
10
11.094395
20
7.769486
11
11.089637
21
7.745569
0
LINE
8
hole
62
5
10
11.089637
20
7.745569
11
11.076089
21
7.725292
0
LINE
8
hole
62
5
10
11.076089
20
7.725292
11
11.076089
21
7.527069
0
LINE
8
hole
62
5
10
11.076089
20
7.527069
11
11.089637
21
7.506792
0
LINE
8
hole
62
5
10
11.089637
20
7.506792
11
11.094395
21
7.482875
0
LINE
8
hole
62
5
10
11.094395
20
7.482875
11
11.089637
21
7.458957
0
LINE
8
hole
62
5
10
11.089637
20
7.458957
11
11.076089
21
7.438681
0
LINE
8
hole
62
5
10
11.076089
20
7.438681
11
11.055813
21
7.425132
0
LINE
8
hole
62
5
10
11.055813
20
7.425132
11
11.031895
21
7.420375
0
LINE
8
hole
62
5
10
11.031895
20
7.420375
11
11.007977
21
7.425132
0
LINE
8
hole
62
5
10
11.007977
20
7.425132
11
10.987701
21
7.438681
0
LINE
8
hole
62
5
10
10.987701
20
7.438681
11
10.606437
21
7.438681
0
LINE
8
hole
62
5
10
10.606437
20
7.438681
11
10.587687
21
7.419931
0
LINE
8
hole
62
5
10
10.587687
20
7.419931
11
10.581366
21
7.411717
0
LINE
8
hole
62
5
10
10.581366
20
7.411717
11
10.569576
21
7.397077
0
LINE
8
hole
62
5
10
10.569576
20
7.397077
11
10.556588
21
7.381114
0
LINE
8
hole
62
5
10
10.556588
20
7.381114
11
10.544120
21
7.366382
0
LINE
8
hole
62
5
10
10.544120
20
7.366382
11
10.530404
21
7.350309
0
LINE
8
hole
62
5
10
10.530404
20
7.350309
11
10.518227
21
7.336498
0
LINE
8
hole
62
5
10
10.518227
20
7.336498
11
10.504847
21
7.321421
0
LINE
8
hole
62
5
10
10.504847
20
7.321421
11
10.491576
21
7.306864
0
LINE
8
hole
62
5
10
10.491576
20
7.306864
11
10.477010
21
7.290959
0
LINE
8
hole
62
5
10
10.477010
20
7.290959
11
10.463992
21
7.277039
0
LINE
8
hole
62
5
10
10.463992
20
7.277039
11
10.449718
21
7.261821
0
LINE
8
hole
62
5
10
10.449718
20
7.261821
11
10.436584
21
7.248009
0
LINE
8
hole
62
5
10
10.436584
20
7.248009
11
10.422196
21
7.232897
0
LINE
8
hole
62
5
10
10.422196
20
7.232897
11
10.409331
21
7.219457
0
LINE
8
hole
62
5
10
10.409331
20
7.219457
11
10.395247
21
7.204743
0
LINE
8
hole
62
5
10
10.395247
20
7.204743
11
10.381778
21
7.190622
0
LINE
8
hole
62
5
10
10.381778
20
7.190622
11
10.367038
21
7.175156
0
LINE
8
hole
62
5
10
10.367038
20
7.175156
11
10.353911
21
7.161221
0
LINE
8
hole
62
5
10
10.353911
20
7.161221
11
10.339548
21
7.145956
0
LINE
8
hole
62
5
10
10.339548
20
7.145956
11
10.326671
21
7.132021
0
LINE
8
hole
62
5
10
10.326671
20
7.132021
11
10.312576
21
7.116759
0
LINE
8
hole
62
5
10
10.312576
20
7.116759
11
10.299780
21
7.102634
0
LINE
8
hole
62
5
10
10.299780
20
7.102634
11
10.285769
21
7.087171
0
LINE
8
hole
62
5
10
10.285769
20
7.087171
11
10.273106
21
7.072927
0
LINE
8
hole
62
5
10
10.273106
20
7.072927
11
10.259237
21
7.057336
0
LINE
8
hole
62
5
10
10.259237
20
7.057336
11
10.246703
21
7.042978
0
LINE
8
hole
62
5
10
10.246703
20
7.042978
11
10.232971
21
7.027265
0
LINE
8
hole
62
5
10
10.232971
20
7.027265
11
10.220716
21
7.012975
0
LINE
8
hole
62
5
10
10.220716
20
7.012975
11
10.207286
21
6.997341
0
LINE
8
hole
62
5
10
10.207286
20
6.997341
11
10.194851
21
6.982590
0
LINE
8
hole
62
5
10
10.194851
20
6.982590
11
10.181222
21
6.966454
0
LINE
8
hole
62
5
10
10.181222
20
6.966454
11
10.169058
21
6.951782
0
LINE
8
hole
62
5
10
10.169058
20
6.951782
11
10.155721
21
6.935734
0
LINE
8
hole
62
5
10
10.155721
20
6.935734
11
10.143673
21
6.920968
0
LINE
8
hole
62
5
10
10.143673
20
6.920968
11
10.130460
21
6.904819
0
LINE
8
hole
62
5
10
10.130460
20
6.904819
11
10.118522
21
6.889962
0
LINE
8
hole
62
5
10
10.118522
20
6.889962
11
10.105429
21
6.873716
0
LINE
8
hole
62
5
10
10.105429
20
6.873716
11
10.093598
21
6.858775
0
LINE
8
hole
62
5
10
10.093598
20
6.858775
11
10.080618
21
6.842438
0
LINE
8
hole
62
5
10
10.080618
20
6.842438
11
10.068887
21
6.827418
0
LINE
8
hole
62
5
10
10.068887
20
6.827418
11
10.056015
21
6.810997
0
LINE
8
hole
62
5
10
10.056015
20
6.810997
11
10.044378
21
6.795904
0
LINE
8
hole
62
5
10
10.044378
20
6.795904
11
10.031608
21
6.779404
0
LINE
8
hole
62
5
10
10.031608
20
6.779404
11
10.020061
21
6.764243
0
LINE
8
hole
62
5
10
10.020061
20
6.764243
11
10.007388
21
6.747667
0
LINE
8
hole
62
5
10
10.007388
20
6.747667
11
9.995927
21
6.732441
0
LINE
8
hole
62
5
10
9.995927
20
6.732441
11
9.983347
21
6.715795
0
LINE
8
hole
62
5
10
9.983347
20
6.715795
11
9.972231
21
6.700859
0
LINE
8
hole
62
5
10
9.972231
20
6.700859
11
9.960028
21
6.684532
0
LINE
8
hole
62
5
10
9.960028
20
6.684532
11
9.948473
21
6.668829
0
LINE
8
hole
62
5
10
9.948473
20
6.668829
11
9.935787
21
6.651662
0
LINE
8
hole
62
5
10
9.935787
20
6.651662
11
9.925067
21
6.636923
0
LINE
8
hole
62
5
10
9.925067
20
6.636923
11
9.913295
21
6.620811
0
LINE
8
hole
62
5
10
9.913295
20
6.620811
11
9.901693
21
6.604657
0
LINE
8
hole
62
5
10
9.901693
20
6.604657
11
9.888949
21
6.587003
0
LINE
8
hole
62
5
10
9.888949
20
6.587003
11
9.877422
21
6.570733
0
LINE
8
hole
62
5
10
9.877422
20
6.570733
11
9.864755
21
6.552953
0
LINE
8
hole
62
5
10
9.864755
20
6.552953
11
9.854345
21
6.538059
0
LINE
8
hole
62
5
10
9.854345
20
6.538059
11
9.842900
21
6.521786
0
LINE
8
hole
62
5
10
9.842900
20
6.521786
11
9.832449
21
6.506630
0
LINE
8
hole
62
5
10
9.832449
20
6.506630
11
9.820953
21
6.490075
0
LINE
8
hole
62
5
10
9.820953
20
6.490075
11
9.809883
21
6.473783
0
LINE
8
hole
62
5
10
9.809883
20
6.473783
11
9.797698
21
6.455990
0
LINE
8
hole
62
5
10
9.797698
20
6.455990
11
9.787174
21
6.440236
0
LINE
8
hole
62
5
10
9.787174
20
6.440236
11
9.775580
21
6.423035
0
LINE
8
hole
62
5
10
9.775580
20
6.423035
11
9.765074
21
6.407020
0
LINE
8
hole
62
5
10
9.765074
20
6.407020
11
9.753490
21
6.389539
0
LINE
8
hole
62
5
10
9.753490
20
6.389539
11
9.743157
21
6.373538
0
LINE
8
hole
62
5
10
9.743157
20
6.373538
11
9.731758
21
6.356076
0
LINE
8
hole
62
5
10
9.731758
20
6.356076
11
9.721538
21
6.340006
0
LINE
8
hole
62
5
10
9.721538
20
6.340006
11
9.710258
21
6.322470
0
LINE
8
hole
62
5
10
9.710258
20
6.322470
11
9.700247
21
6.306272
0
LINE
8
hole
62
5
10
9.700247
20
6.306272
11
9.689179
21
6.288606
0
LINE
8
hole
62
5
10
9.689179
20
6.288606
11
9.679688
21
6.272602
0
LINE
8
hole
62
5
10
9.679688
20
6.272602
11
9.669161
21
6.255160
0
LINE
8
hole
62
5
10
9.669161
20
6.255160
11
9.659386
21
6.238345
0
LINE
8
hole
62
5
10
9.659386
20
6.238345
11
9.648536
21
6.220024
0
LINE
8
hole
62
5
10
9.648536
20
6.220024
11
9.638868
21
6.203625
0
LINE
8
hole
62
5
10
9.638868
20
6.203625
11
9.628164
21
6.185742
0
LINE
8
hole
62
5
10
9.628164
20
6.185742
11
9.618322
21
6.169433
0
LINE
8
hole
62
5
10
9.618322
20
6.169433
11
9.607463
21
6.151630
0
LINE
8
hole
62
5
10
9.607463
20
6.151630
11
9.597469
21
6.135406
0
LINE
8
hole
62
5
10
9.597469
20
6.135406
11
9.586475
21
6.117677
0
LINE
8
hole
62
5
10
9.586475
20
6.117677
11
9.576306
21
6.101558
0
LINE
8
hole
62
5
10
9.576306
20
6.101558
11
9.565158
21
6.083918
0
LINE
8
hole
62
5
10
9.565158
20
6.083918
11
9.554768
21
6.067942
0
LINE
8
hole
62
5
10
9.554768
20
6.067942
11
9.543421
21
6.050432
0
LINE
8
hole
62
5
10
9.543421
20
6.050432
11
9.532763
21
6.034644
0
LINE
8
hole
62
5
10
9.532763
20
6.034644
11
9.521174
21
6.017306
0
LINE
8
hole
62
5
10
9.521174
20
6.017306
11
9.510207
21
6.001758
0
LINE
8
hole
62
5
10
9.510207
20
6.001758
11
9.498336
21
5.984640
0
LINE
8
hole
62
5
10
9.498336
20
5.984640
11
9.487014
21
5.969396
0
LINE
8
hole
62
5
10
9.487014
20
5.969396
11
9.474817
21
5.952561
0
LINE
8
hole
62
5
10
9.474817
20
5.952561
11
9.463482
21
5.938187
0
LINE
8
hole
62
5
10
9.463482
20
5.938187
11
9.451329
21
5.922252
0
LINE
8
hole
62
5
10
9.451329
20
5.922252
11
9.438774
21
5.907385
0
LINE
8
hole
62
5
10
9.438774
20
5.907385
11
9.425378
21
5.890823
0
LINE
8
hole
62
5
10
9.425378
20
5.890823
11
9.412798
21
5.876984
0
LINE
8
hole
62
5
10
9.412798
20
5.876984
11
9.399445
21
5.861471
0
LINE
8
hole
62
5
10
9.399445
20
5.861471
11
9.386479
21
5.848254
0
LINE
8
hole
62
5
10
9.386479
20
5.848254
11
9.372787
21
5.833321
0
LINE
8
hole
62
5
10
9.372787
20
5.833321
11
9.358972
21
5.820369
0
LINE
8
hole
62
5
10
9.358972
20
5.820369
11
9.344451
21
5.805590
0
LINE
8
hole
62
5
10
9.344451
20
5.805590
11
9.331284
21
5.794312
0
LINE
8
hole
62
5
10
9.331284
20
5.794312
11
9.317497
21
5.781296
0
LINE
8
hole
62
5
10
9.317497
20
5.781296
11
9.304091
21
5.770932
0
LINE
8
hole
62
5
10
9.304091
20
5.770932
11
9.290079
21
5.758813
0
LINE
8
hole
62
5
10
9.290079
20
5.758813
11
9.275033
21
5.748551
0
LINE
8
hole
62
5
10
9.275033
20
5.748551
11
9.259301
21
5.736354
0
LINE
8
hole
62
5
10
9.259301
20
5.736354
11
9.244783
21
5.727731
0
LINE
8
hole
62
5
10
9.244783
20
5.727731
11
9.229590
21
5.717265
0
LINE
8
hole
62
5
10
9.229590
20
5.717265
11
9.214393
21
5.709477
0
LINE
8
hole
62
5
10
9.214393
20
5.709477
11
9.198470
21
5.699770
0
LINE
8
hole
62
5
10
9.198470
20
5.699770
11
9.183328
21
5.693222
0
LINE
8
hole
62
5
10
9.183328
20
5.693222
11
9.167424
21
5.684772
0
LINE
8
hole
62
5
10
9.167424
20
5.684772
11
9.152134
21
5.679366
0
LINE
8
hole
62
5
10
9.152134
20
5.679366
11
9.136014
21
5.672051
0
LINE
8
hole
62
5
10
9.136014
20
5.672051
11
9.120694
21
5.667844
0
LINE
8
hole
62
5
10
9.120694
20
5.667844
11
9.104478
21
5.661740
0
LINE
8
hole
62
5
10
9.104478
20
5.661740
11
9.089760
21
5.658883
0
LINE
8
hole
62
5
10
9.089760
20
5.658883
11
9.074120
21
5.654226
0
LINE
8
hole
62
5
10
9.074120
20
5.654226
11
9.058230
21
5.652582
0
LINE
8
hole
62
5
10
9.058230
20
5.652582
11
9.041185
21
5.649092
0
LINE
8
hole
62
5
10
9.041185
20
5.649092
11
9.024986
21
5.649034
0
LINE
8
hole
62
5
10
9.024986
20
5.649034
11
9.007308
21
5.647314
0
LINE
8
hole
62
5
10
9.007308
20
5.647314
11
8.990836
21
5.650180
0
LINE
8
hole
62
5
10
8.990836
20
5.650180
11
8.972643
21
5.651907
0
LINE
8
hole
62
5
10
8.972643
20
5.651907
11
8.957499
21
5.660261
0
LINE
8
hole
62
5
10
8.957499
20
5.660261
11
8.940798
21
5.668702
0
LINE
8
hole
62
5
10
8.940798
20
5.668702
11
8.928009
21
5.682615
0
LINE
8
hole
62
5
10
8.928009
20
5.682615
11
8.914087
21
5.697886
0
LINE
8
hole
62
5
10
8.914087
20
5.697886
11
8.903928
21
5.714356
0
LINE
8
hole
62
5
10
8.903928
20
5.714356
11
8.893115
21
5.732669
0
LINE
8
hole
62
5
10
8.893115
20
5.732669
11
8.885427
21
5.749727
0
LINE
8
hole
62
5
10
8.885427
20
5.749727
11
8.877510
21
5.768612
0
LINE
8
hole
62
5
10
8.877510
20
5.768612
11
8.871546
21
5.786191
0
LINE
8
hole
62
5
10
8.871546
20
5.786191
11
8.865573
21
5.805590
0
LINE
8
hole
62
5
10
8.865573
20
5.805590
11
8.860810
21
5.823694
0
LINE
8
hole
62
5
10
8.860810
20
5.823694
11
8.856118
21
5.843637
0
LINE
8
hole
62
5
10
8.856118
20
5.843637
11
8.852721
21
5.861295
0
LINE
8
hole
62
5
10
8.852721
20
5.861295
11
8.849479
21
5.880711
0
LINE
8
hole
62
5
10
8.849479
20
5.880711
11
8.847123
21
5.900154
0
LINE
8
hole
62
5
10
8.847123
20
5.900154
11
8.845058
21
5.921492
0
LINE
8
hole
62
5
10
8.845058
20
5.921492
11
8.844014
21
5.941121
0
LINE
8
hole
62
5
10
8.844014
20
5.941121
11
8.843384
21
5.962626
0
LINE
8
hole
62
5
10
8.843384
20
5.962626
11
8.843468
21
5.980530
0
LINE
8
hole
62
5
10
8.843468
20
5.980530
11
8.844019
21
6.000120
0
LINE
8
hole
62
5
10
8.844019
20
6.000120
11
8.845024
21
6.019405
0
LINE
8
hole
62
5
10
8.845024
20
6.019405
11
8.846600
21
6.040484
0
LINE
8
hole
62
5
10
8.846600
20
6.040484
11
8.848272
21
6.058751
0
LINE
8
hole
62
5
10
8.848272
20
6.058751
11
8.850524
21
6.078703
0
LINE
8
hole
62
5
10
8.850524
20
6.078703
11
8.852895
21
6.097428
0
LINE
8
hole
62
5
10
8.852895
20
6.097428
11
8.855886
21
6.117871
0
LINE
8
hole
62
5
10
8.855886
20
6.117871
11
8.858874
21
6.136546
0
LINE
8
hole
62
5
10
8.858874
20
6.136546
11
8.862497
21
6.156930
0
LINE
8
hole
62
5
10
8.862497
20
6.156930
11
8.866001
21
6.175065
0
LINE
8
hole
62
5
10
8.866001
20
6.175065
11
8.870128
21
6.194860
0
LINE
8
hole
62
5
10
8.870128
20
6.194860
11
8.874431
21
6.213850
0
LINE
8
hole
62
5
10
8.874431
20
6.213850
11
8.879390
21
6.234583
0
LINE
8
hole
62
5
10
8.879390
20
6.234583
11
8.884117
21
6.253000
0
LINE
8
hole
62
5
10
8.884117
20
6.253000
11
8.889481
21
6.273114
0
LINE
8
hole
62
5
10
8.889481
20
6.273114
11
8.894646
21
6.291433
0
LINE
8
hole
62
5
10
8.894646
20
6.291433
11
8.900445
21
6.311447
0
LINE
8
hole
62
5
10
8.900445
20
6.311447
11
8.905964
21
6.329674
0
LINE
8
hole
62
5
10
8.905964
20
6.329674
11
8.912116
21
6.349595
0
LINE
8
hole
62
5
10
8.912116
20
6.349595
11
8.917663
21
6.366980
0
LINE
8
hole
62
5
10
8.917663
20
6.366980
11
8.923816
21
6.385987
0
LINE
8
hole
62
5
10
8.923816
20
6.385987
11
8.930077
21
6.404831
0
LINE
8
hole
62
5
10
8.930077
20
6.404831
11
8.936997
21
6.425440
0
LINE
8
hole
62
5
10
8.936997
20
6.425440
11
8.943473
21
6.444330
0
LINE
8
hole
62
5
10
8.943473
20
6.444330
11
8.950614
21
6.464994
0
LINE
8
hole
62
5
10
8.950614
20
6.464994
11
8.956620
21
6.482116
0
LINE
8
hole
62
5
10
8.956620
20
6.482116
11
8.963231
21
6.500849
0
LINE
8
hole
62
5
10
8.963231
20
6.500849
11
8.969637
21
6.518799
0
LINE
8
hole
62
5
10
8.969637
20
6.518799
11
8.976680
21
6.538440
0
LINE
8
hole
62
5
10
8.976680
20
6.538440
11
8.983169
21
6.556360
0
LINE
8
hole
62
5
10
8.983169
20
6.556360
11
8.990295
21
6.575972
0
LINE
8
hole
62
5
10
8.990295
20
6.575972
11
8.996851
21
6.593867
0
LINE
8
hole
62
5
10
8.996851
20
6.593867
11
9.004046
21
6.613454
0
LINE
8
hole
62
5
10
9.004046
20
6.613454
11
9.010658
21
6.631329
0
LINE
8
hole
62
5
10
9.010658
20
6.631329
11
9.017911
21
6.650895
0
LINE
8
hole
62
5
10
9.017911
20
6.650895
11
9.024568
21
6.668754
0
LINE
8
hole
62
5
10
9.024568
20
6.668754
11
9.031868
21
6.688302
0
LINE
8
hole
62
5
10
9.031868
20
6.688302
11
9.038563
21
6.706147
0
LINE
8
hole
62
5
10
9.038563
20
6.706147
11
9.045902
21
6.725680
0
LINE
8
hole
62
5
10
9.045902
20
6.725680
11
9.052629
21
6.743513
0
LINE
8
hole
62
5
10
9.052629
20
6.743513
11
9.060002
21
6.763034
0
LINE
8
hole
62
5
10
9.060002
20
6.763034
11
9.066758
21
6.780856
0
LINE
8
hole
62
5
10
9.066758
20
6.780856
11
9.074161
21
6.800365
0
LINE
8
hole
62
5
10
9.074161
20
6.800365
11
9.081194
21
6.818838
0
LINE
8
hole
62
5
10
9.081194
20
6.818838
11
9.088898
21
6.839062
0
LINE
8
hole
62
5
10
9.088898
20
6.839062
11
9.095449
21
6.856204
0
LINE
8
hole
62
5
10
9.095449
20
6.856204
11
9.102625
21
6.874972
0
LINE
8
hole
62
5
10
9.102625
20
6.874972
11
9.109560
21
6.893063
0
LINE
8
hole
62
5
10
9.109560
20
6.893063
11
9.117155
21
6.912868
0
LINE
8
hole
62
5
10
9.117155
20
6.912868
11
9.123882
21
6.930364
0
LINE
8
hole
62
5
10
9.123882
20
6.930364
11
9.131248
21
6.949519
0
LINE
8
hole
62
5
10
9.131248
20
6.949519
11
9.138101
21
6.967304
0
LINE
8
hole
62
5
10
9.138101
20
6.967304
11
9.145606
21
6.986774
0
LINE
8
hole
62
5
10
9.145606
20
6.986774
11
9.152473
21
7.004553
0
LINE
8
hole
62
5
10
9.152473
20
7.004553
11
9.159991
21
7.024018
0
LINE
8
hole
62
5
10
9.159991
20
7.024018
11
9.166626
21
7.041165
0
LINE
8
hole
62
5
10
9.166626
20
7.041165
11
9.173891
21
7.059938
0
LINE
8
hole
62
5
10
9.173891
20
7.059938
11
9.181023
21
7.078337
0
LINE
8
hole
62
5
10
9.181023
20
7.078337
11
9.188833
21
7.098480
0
LINE
8
hole
62
5
10
9.188833
20
7.098480
11
9.196006
21
7.116956
0
LINE
8
hole
62
5
10
9.196006
20
7.116956
11
9.203860
21
7.137183
0
LINE
8
hole
62
5
10
9.203860
20
7.137183
11
9.210492
21
7.154239
0
LINE
8
hole
62
5
10
9.210492
20
7.154239
11
9.217753
21
7.172912
0
LINE
8
hole
62
5
10
9.217753
20
7.172912
11
9.224668
21
7.190673
0
LINE
8
hole
62
5
10
9.224668
20
7.190673
11
9.232238
21
7.210119
0
LINE
8
hole
62
5
10
9.232238
20
7.210119
11
9.239160
21
7.227877
0
LINE
8
hole
62
5
10
9.239160
20
7.227877
11
9.246737
21
7.247319
0
LINE
8
hole
62
5
10
9.246737
20
7.247319
11
9.253665
21
7.265075
0
LINE
8
hole
62
5
10
9.253665
20
7.265075
11
9.261249
21
7.284515
0
LINE
8
hole
62
5
10
9.261249
20
7.284515
11
9.268446
21
7.302943
0
LINE
8
hole
62
5
10
9.268446
20
7.302943
11
9.276325
21
7.323118
0
LINE
8
hole
62
5
10
9.276325
20
7.323118
11
9.283001
21
7.340194
0
LINE
8
hole
62
5
10
9.283001
20
7.340194
11
9.290309
21
7.358892
0
LINE
8
hole
62
5
10
9.290309
20
7.358892
11
9.297254
21
7.376641
0
LINE
8
hole
62
5
10
9.297254
20
7.376641
11
9.304856
21
7.396074
0
LINE
8
hole
62
5
10
9.304856
20
7.396074
11
9.311805
21
7.413822
0
LINE
8
hole
62
5
10
9.311805
20
7.413822
11
9.319412
21
7.433252
0
LINE
8
hole
62
5
10
9.319412
20
7.433252
11
9.326365
21
7.450998
0
LINE
8
hole
62
5
10
9.326365
20
7.450998
11
9.333977
21
7.470427
0
LINE
8
hole
62
5
10
9.333977
20
7.470427
11
9.340934
21
7.488171
0
LINE
8
hole
62
5
10
9.340934
20
7.488171
11
9.348551
21
7.507599
0
LINE
8
hole
62
5
10
9.348551
20
7.507599
11
9.355511
21
7.525342
0
LINE
8
hole
62
5
10
9.355511
20
7.525342
11
9.363132
21
7.544767
0
LINE
8
hole
62
5
10
9.363132
20
7.544767
11
9.370096
21
7.562509
0
LINE
8
hole
62
5
10
9.370096
20
7.562509
11
9.377720
21
7.581933
0
LINE
8
hole
62
5
10
9.377720
20
7.581933
11
9.384687
21
7.599674
0
LINE
8
hole
62
5
10
9.384687
20
7.599674
11
9.392314
21
7.619096
0
LINE
8
hole
62
5
10
9.392314
20
7.619096
11
9.399284
21
7.636836
0
LINE
8
hole
62
5
10
9.399284
20
7.636836
11
9.406913
21
7.656258
0
LINE
8
hole
62
5
10
9.406913
20
7.656258
11
9.414075
21
7.674478
0
LINE
8
hole
62
5
10
9.414075
20
7.674478
11
9.421914
21
7.694427
0
LINE
8
hole
62
5
10
9.421914
20
7.694427
11
9.428699
21
7.711683
0
LINE
8
hole
62
5
10
9.428699
20
7.711683
11
9.436127
21
7.730576
0
LINE
8
hole
62
5
10
9.436127
20
7.730576
11
9.443148
21
7.748429
0
LINE
8
hole
62
5
10
9.443148
20
7.748429
11
9.450836
21
7.767976
0
LINE
8
hole
62
5
10
9.450836
20
7.767976
11
9.457768
21
7.785595
0
LINE
8
hole
62
5
10
9.457768
20
7.785595
11
9.465356
21
7.804886
0
LINE
8
hole
62
5
10
9.465356
20
7.804886
11
9.472336
21
7.822621
0
LINE
8
hole
62
5
10
9.472336
20
7.822621
11
9.479977
21
7.842039
0
LINE
8
hole
62
5
10
9.479977
20
7.842039
11
9.486958
21
7.859773
0
LINE
8
hole
62
5
10
9.486958
20
7.859773
11
9.494601
21
7.879190
0
LINE
8
hole
62
5
10
9.494601
20
7.879190
11
9.501267
21
7.896121
0
LINE
8
hole
62
5
10
9.501267
20
7.896121
11
9.508565
21
7.914659
0
LINE
8
hole
62
5
10
9.508565
20
7.914659
11
9.515866
21
7.933196
0
LINE
8
hole
62
5
10
9.515866
20
7.933196
11
9.523858
21
7.953490
0
LINE
8
hole
62
5
10
9.523858
20
7.953490
11
9.531053
21
7.971753
0
LINE
8
hole
62
5
10
9.531053
20
7.971753
11
9.538929
21
7.991749
0
LINE
8
hole
62
5
10
9.538929
20
7.991749
11
9.545707
21
8.008952
0
LINE
8
hole
62
5
10
9.545707
20
8.008952
11
9.553126
21
8.027785
0
LINE
8
hole
62
5
10
9.553126
20
8.027785
11
9.560115
21
8.045518
0
LINE
8
hole
62
5
10
9.560115
20
8.045518
11
9.567765
21
8.064931
0
LINE
8
hole
62
5
10
9.567765
20
8.064931
11
9.574754
21
8.082663
0
LINE
8
hole
62
5
10
9.574754
20
8.082663
11
9.582405
21
8.102077
0
LINE
8
hole
62
5
10
9.582405
20
8.102077
11
9.589395
21
8.119808
0
LINE
8
hole
62
5
10
9.589395
20
8.119808
11
9.597047
21
8.139221
0
LINE
8
hole
62
5
10
9.597047
20
8.139221
11
9.604234
21
8.157449
0
LINE
8
hole
62
5
10
9.604234
20
8.157449
11
9.612101
21
8.177406
0
LINE
8
hole
62
5
10
9.612101
20
8.177406
11
9.618897
21
8.194640
0
LINE
8
hole
62
5
10
9.618897
20
8.194640
11
9.626337
21
8.213508
0
LINE
8
hole
62
5
10
9.626337
20
8.213508
11
9.633331
21
8.231238
0
LINE
8
hole
62
5
10
9.633331
20
8.231238
11
9.640988
21
8.250650
0
LINE
8
hole
62
5
10
9.640988
20
8.250650
11
9.647982
21
8.268380
0
LINE
8
hole
62
5
10
9.647982
20
8.268380
11
9.655638
21
8.287791
0
LINE
8
hole
62
5
10
9.655638
20
8.287791
11
9.662626
21
8.305523
0
LINE
8
hole
62
5
10
9.662626
20
8.305523
11
9.670277
21
8.324937
0
LINE
8
hole
62
5
10
9.670277
20
8.324937
11
9.677269
21
8.342667
0
LINE
8
hole
62
5
10
9.677269
20
8.342667
11
9.684924
21
8.362080
0
LINE
8
hole
62
5
10
9.684924
20
8.362080
11
9.691940
21
8.379801
0
LINE
8
hole
62
5
10
9.691940
20
8.379801
11
9.699617
21
8.399205
0
LINE
8
hole
62
5
10
9.699617
20
8.399205
11
9.706625
21
8.416929
0
LINE
8
hole
62
5
10
9.706625
20
8.416929
11
9.714295
21
8.436335
0
LINE
8
hole
62
5
10
9.714295
20
8.436335
11
9.721222
21
8.454090
0
LINE
8
hole
62
5
10
9.721222
20
8.454090
11
9.728814
21
8.473525
0
LINE
8
hole
62
5
10
9.728814
20
8.473525
11
9.735754
21
8.491276
0
LINE
8
hole
62
5
10
9.735754
20
8.491276
11
9.743359
21
8.510707
0
LINE
8
hole
62
5
10
9.743359
20
8.510707
11
9.750739
21
8.528636
0
LINE
8
hole
62
5
10
9.750739
20
8.528636
11
9.758784
21
8.548279
0
LINE
8
hole
62
5
10
9.758784
20
8.548279
11
9.766455
21
8.565347
0
LINE
8
hole
62
5
10
9.766455
20
8.565347
11
9.774747
21
8.584081
0
LINE
8
hole
62
5
10
9.774747
20
8.584081
11
9.783206
21
8.601017
0
LINE
8
hole
62
5
10
9.783206
20
8.601017
11
9.792269
21
8.619656
0
LINE
8
hole
62
5
10
9.792269
20
8.619656
11
9.801544
21
8.636235
0
LINE
8
hole
62
5
10
9.801544
20
8.636235
11
9.811399
21
8.654549
0
LINE
8
hole
62
5
10
9.811399
20
8.654549
11
9.821319
21
8.670543
0
LINE
8
hole
62
5
10
9.821319
20
8.670543
11
9.831792
21
8.688283
0
LINE
8
hole
62
5
10
9.831792
20
8.688283
11
9.842330
21
8.703726
0
LINE
8
hole
62
5
10
9.842330
20
8.703726
11
9.853396
21
8.720937
0
LINE
8
hole
62
5
10
9.853396
20
8.720937
11
9.864581
21
8.735869
0
LINE
8
hole
62
5
10
9.864581
20
8.735869
11
9.876277
21
8.752603
0
LINE
8
hole
62
5
10
9.876277
20
8.752603
11
9.887858
21
8.766700
0
LINE
8
hole
62
5
10
9.887858
20
8.766700
11
9.899922
21
8.782602
0
LINE
8
hole
62
5
10
9.899922
20
8.782602
11
9.912293
21
8.796359
0
LINE
8
hole
62
5
10
9.912293
20
8.796359
11
9.925142
21
8.811993
0
LINE
8
hole
62
5
10
9.925142
20
8.811993
11
9.937442
21
8.824509
0
LINE
8
hole
62
5
10
9.937442
20
8.824509
11
9.950184
21
8.838860
0
LINE
8
hole
62
5
10
9.950184
20
8.838860
11
9.963102
21
8.850878
0
LINE
8
hole
62
5
10
9.963102
20
8.850878
11
9.976459
21
8.864794
0
LINE
8
hole
62
5
10
9.976459
20
8.864794
11
9.989713
21
8.876020
0
LINE
8
hole
62
5
10
9.989713
20
8.876020
11
10.003403
21
8.889171
0
LINE
8
hole
62
5
10
10.003403
20
8.889171
11
10.016881
21
8.899601
0
LINE
8
hole
62
5
10
10.016881
20
8.899601
11
10.030779
21
8.911989
0
LINE
8
hole
62
5
10
10.030779
20
8.911989
11
10.044571
21
8.921798
0
LINE
8
hole
62
5
10
10.044571
20
8.921798
11
10.058754
21
8.933644
0
LINE
8
hole
62
5
10
10.058754
20
8.933644
11
10.072230
21
8.942278
0
LINE
8
hole
62
5
10
10.072230
20
8.942278
11
10.086092
21
8.952903
0
LINE
8
hole
62
5
10
10.086092
20
8.952903
11
10.100287
21
8.960719
0
LINE
8
hole
62
5
10
10.100287
20
8.960719
11
10.114986
21
8.970550
0
LINE
8
hole
62
5
10
10.114986
20
8.970550
11
10.130013
21
8.977024
0
LINE
8
hole
62
5
10
10.130013
20
8.977024
11
10.145771
21
8.985415
0
LINE
8
hole
62
5
10
10.145771
20
8.985415
11
10.162007
21
8.989960
0
LINE
8
hole
62
5
10
10.162007
20
8.989960
11
10.179325
21
8.996169
0
LINE
8
hole
62
5
10
10.179325
20
8.996169
11
10.196777
21
8.998435
0
LINE
8
hole
62
5
10
10.196777
20
8.998435
11
10.215680
21
9.002001
0
LINE
8
hole
62
5
10
10.215680
20
9.002001
11
10.233844
21
9.001943
0
LINE
8
hole
62
5
10
10.233844
20
9.001943
11
10.253700
21
9.002770
0
LINE
8
hole
62
5
10
10.253700
20
9.002770
11
10.272135
21
9.000524
0
LINE
8
hole
62
5
10
10.272135
20
9.000524
11
10.292375
21
8.998708
0
LINE
8
hole
62
5
10
10.292375
20
8.998708
11
10.310785
21
8.994601
0
LINE
8
hole
62
5
10
10.310785
20
8.994601
11
10.331002
21
8.990451
0
LINE
8
hole
62
5
10
10.331002
20
8.990451
11
10.349212
21
8.984937
0
LINE
8
hole
62
5
10
10.349212
20
8.984937
11
10.369165
21
8.978974
0
LINE
8
hole
62
5
10
10.369165
20
8.978974
11
10.387424
21
8.972917
0
LINE
8
hole
62
5
10
10.387424
20
8.972917
11
10.407408
21
8.966246
0
LINE
8
hole
62
5
10
10.407408
20
8.966246
11
10.425393
21
8.960330
0
LINE
8
hole
62
5
10
10.425393
20
8.960330
11
10.445084
21
8.953851
0
LINE
8
hole
62
5
10
10.445084
20
8.953851
11
10.462779
21
8.947565
0
LINE
8
hole
62
5
10
10.462779
20
8.947565
11
10.482176
21
8.940753
0
LINE
8
hole
62
5
10
10.482176
20
8.940753
11
10.500011
21
8.933450
0
LINE
8
hole
62
5
10
10.500011
20
8.933450
11
10.519600
21
8.925614
0
LINE
8
hole
62
5
10
10.519600
20
8.925614
11
10.536850
21
8.917735
0
LINE
8
hole
62
5
10
10.536850
20
8.917735
11
10.555857
21
8.909379
0
LINE
8
hole
62
5
10
10.555857
20
8.909379
11
10.572740
21
8.900952
0
LINE
8
hole
62
5
10
10.572740
20
8.900952
11
10.591416
21
8.892120
0
LINE
8
hole
62
5
10
10.591416
20
8.892120
11
10.607541
21
8.882596
0
LINE
8
hole
62
5
10
10.607541
20
8.882596
11
10.625418
21
8.872570
0
LINE
8
hole
62
5
10
8.924819
20
3.329594
11
8.944567
21
3.311291
0
LINE
8
hole
62
5
10
8.944567
20
3.311291
11
8.957570
21
3.298318
0
LINE
8
hole
62
5
10
8.957570
20
3.298318
11
8.976333
21
3.279001
0
LINE
8
hole
62
5
10
8.976333
20
3.279001
11
8.988658
21
3.265380
0
LINE
8
hole
62
5
10
8.988658
20
3.265380
11
9.006414
21
3.245132
0
LINE
8
hole
62
5
10
9.006414
20
3.245132
11
9.018045
21
3.230915
0
LINE
8
hole
62
5
10
9.018045
20
3.230915
11
9.034768
21
3.209807
0
LINE
8
hole
62
5
10
9.034768
20
3.209807
11
9.046183
21
3.194367
0
LINE
8
hole
62
5
10
9.046183
20
3.194367
11
9.062559
21
3.171468
0
LINE
8
hole
62
5
10
9.062559
20
3.171468
11
9.072332
21
3.156911
0
LINE
8
hole
62
5
10
9.072332
20
3.156911
11
9.086322
21
3.135346
0
LINE
8
hole
62
5
10
9.086322
20
3.135346
11
9.095919
21
3.119680
0
LINE
8
hole
62
5
10
9.095919
20
3.119680
11
9.109634
21
3.096499
0
LINE
8
hole
62
5
10
9.109634
20
3.096499
11
9.118613
21
3.080461
0
LINE
8
hole
62
5
10
9.118613
20
3.080461
11
9.131431
21
3.056760
0
LINE
8
hole
62
5
10
9.131431
20
3.056760
11
9.139847
21
3.040405
0
LINE
8
hole
62
5
10
9.139847
20
3.040405
11
9.151861
21
3.016267
0
LINE
8
hole
62
5
10
9.151861
20
3.016267
11
9.159797
21
2.999658
0
LINE
8
hole
62
5
10
9.159797
20
2.999658
11
9.171141
21
2.975176
0
LINE
8
hole
62
5
10
9.171141
20
2.975176
11
9.178715
21
2.958382
0
LINE
8
hole
62
5
10
9.178715
20
2.958382
11
9.189575
21
2.933658
0
LINE
8
hole
62
5
10
9.189575
20
2.933658
11
9.196985
21
2.916769
0
LINE
8
hole
62
5
10
9.196985
20
2.916769
11
9.207677
21
2.891940
0
LINE
8
hole
62
5
10
9.207677
20
2.891940
11
9.215130
21
2.875061
0
LINE
8
hole
62
5
10
9.215130
20
2.875061
11
9.225991
21
2.850292
0
LINE
8
hole
62
5
10
9.225991
20
2.850292
11
9.233453
21
2.834040
0
LINE
8
hole
62
5
10
9.233453
20
2.834040
11
9.244455
21
2.810250
0
LINE
8
hole
62
5
10
9.244455
20
2.810250
11
9.252815
21
2.793193
0
LINE
8
hole
62
5
10
9.252815
20
2.793193
11
9.265294
21
2.768303
0
LINE
8
hole
62
5
10
9.265294
20
2.768303
11
9.273770
21
2.751989
0
LINE
8
hole
62
5
10
9.273770
20
2.751989
11
9.286540
21
2.728255
0
LINE
8
hole
62
5
10
9.286540
20
2.728255
11
9.295272
21
2.712127
0
LINE
8
hole
62
5
10
9.295272
20
2.712127
11
9.308502
21
2.688716
0
LINE
8
hole
62
5
10
9.308502
20
2.688716
11
9.317444
21
2.672746
0
LINE
8
hole
62
5
10
9.317444
20
2.672746
11
9.331042
21
2.649607
0
LINE
8
hole
62
5
10
9.331042
20
2.649607
11
9.334504
21
2.643608
0
LINE
8
hole
62
5
10
9.334504
20
2.643608
11
9.353254
21
2.624858
0
LINE
8
hole
62
5
10
9.353254
20
2.624858
11
9.826449
21
2.624858
0
LINE
8
hole
62
5
10
9.826449
20
2.624858
11
9.846726
21
2.638406
0
LINE
8
hole
62
5
10
9.846726
20
2.638406
11
9.870644
21
2.643164
0
LINE
8
hole
62
5
10
9.870644
20
2.643164
11
9.894561
21
2.638406
0
LINE
8
hole
62
5
10
9.894561
20
2.638406
11
9.914838
21
2.624858
0
LINE
8
hole
62
5
10
9.914838
20
2.624858
11
9.928386
21
2.604582
0
LINE
8
hole
62
5
10
9.928386
20
2.604582
11
9.933144
21
2.580664
0
LINE
8
hole
62
5
10
9.933144
20
2.580664
11
9.928386
21
2.556746
0
LINE
8
hole
62
5
10
9.928386
20
2.556746
11
9.914838
21
2.536470
0
LINE
8
hole
62
5
10
9.914838
20
2.536470
11
9.914838
21
2.338246
0
LINE
8
hole
62
5
10
9.914838
20
2.338246
11
9.928386
21
2.317970
0
LINE
8
hole
62
5
10
9.928386
20
2.317970
11
9.933144
21
2.294052
0
LINE
8
hole
62
5
10
9.933144
20
2.294052
11
9.928386
21
2.270134
0
LINE
8
hole
62
5
10
9.928386
20
2.270134
11
9.914838
21
2.249858
0
LINE
8
hole
62
5
10
9.914838
20
2.249858
11
9.894561
21
2.236310
0
LINE
8
hole
62
5
10
9.894561
20
2.236310
11
9.870644
21
2.231552
0
LINE
8
hole
62
5
10
9.870644
20
2.231552
11
9.846726
21
2.236310
0
LINE
8
hole
62
5
10
9.846726
20
2.236310
11
9.826449
21
2.249858
0
LINE
8
hole
62
5
10
9.826449
20
2.249858
11
9.648234
21
2.249858
0
LINE
8
hole
62
5
10
9.648234
20
2.249858
11
9.629484
21
2.231108
0
LINE
8
hole
62
5
10
9.629484
20
2.231108
11
9.646952
21
2.211974
0
LINE
8
hole
62
5
10
9.646952
20
2.211974
11
9.659208
21
2.198412
0
LINE
8
hole
62
5
10
9.659208
20
2.198412
11
9.677625
21
2.178933
0
LINE
8
hole
62
5
10
9.677625
20
2.178933
11
9.690092
21
2.165564
0
LINE
8
hole
62
5
10
9.690092
20
2.165564
11
9.708810
21
2.146375
0
LINE
8
hole
62
5
10
9.708810
20
2.146375
11
9.721462
21
2.133185
0
LINE
8
hole
62
5
10
9.721462
20
2.133185
11
9.740446
21
2.114263
0
LINE
8
hole
62
5
10
9.740446
20
2.114263
11
9.753268
21
2.101229
0
LINE
8
hole
62
5
10
9.753268
20
2.101229
11
9.772495
21
2.082539
0
LINE
8
hole
62
5
10
9.772495
20
2.082539
11
9.785060
21
2.070044
0
LINE
8
hole
62
5
10
9.785060
20
2.070044
11
9.803890
21
2.052134
0
LINE
8
hole
62
5
10
9.803890
20
2.052134
11
9.817382
21
2.038973
0
LINE
8
hole
62
5
10
9.817382
20
2.038973
11
9.837589
21
2.020115
0
LINE
8
hole
62
5
10
9.837589
20
2.020115
11
9.850786
21
2.007453
0
LINE
8
hole
62
5
10
9.850786
20
2.007453
11
9.870541
21
1.989314
0
LINE
8
hole
62
5
10
9.870541
20
1.989314
11
9.883824
21
1.976738
0
LINE
8
hole
62
5
10
9.883824
20
1.976738
11
9.903697
21
1.958720
0
LINE
8
hole
62
5
10
9.903697
20
1.958720
11
9.917038
21
1.946196
0
LINE
8
hole
62
5
10
9.917038
20
1.946196
11
9.936987
21
1.928249
0
LINE
8
hole
62
5
10
9.936987
20
1.928249
11
9.950360
21
1.915744
0
LINE
8
hole
62
5
10
9.950360
20
1.915744
11
9.970344
21
1.897815
0
LINE
8
hole
62
5
10
9.970344
20
1.897815
11
9.983762
21
1.885350
0
LINE
8
hole
62
5
10
9.983762
20
1.885350
11
10.003802
21
1.867471
0
LINE
8
hole
62
5
10
10.003802
20
1.867471
11
10.017288
21
1.855079
0
LINE
8
hole
62
5
10
10.017288
20
1.855079
11
10.037425
21
1.837306
0
LINE
8
hole
62
5
10
10.037425
20
1.837306
11
10.050810
21
1.824766
0
LINE
8
hole
62
5
10
10.050810
20
1.824766
11
10.070755
21
1.806727
0
LINE
8
hole
62
5
10
10.070755
20
1.806727
11
10.083712
21
1.793645
0
LINE
8
hole
62
5
10
10.083712
20
1.793645
11
10.102911
21
1.774679
0
LINE
8
hole
62
5
10
10.102911
20
1.774679
11
10.115209
21
1.760919
0
LINE
8
hole
62
5
10
10.115209
20
1.760919
11
10.133280
21
1.740795
0
LINE
8
hole
62
5
10
10.133280
20
1.740795
11
10.144845
21
1.726433
0
LINE
8
hole
62
5
10
10.144845
20
1.726433
11
10.161665
21
1.705278
0
LINE
8
hole
62
5
10
10.161665
20
1.705278
11
10.172925
21
1.689714
0
LINE
8
hole
62
5
10
10.172925
20
1.689714
11
10.189086
21
1.666653
0
LINE
8
hole
62
5
10
10.189086
20
1.666653
11
10.198597
21
1.652055
0
LINE
8
hole
62
5
10
10.198597
20
1.652055
11
10.212033
21
1.630321
0
LINE
8
hole
62
5
10
10.212033
20
1.630321
11
10.221150
21
1.614705
0
LINE
8
hole
62
5
10
10.221150
20
1.614705
11
10.233779
21
1.591368
0
LINE
8
hole
62
5
10
10.233779
20
1.591368
11
10.241904
21
1.575459
0
LINE
8
hole
62
5
10
10.241904
20
1.575459
11
10.252845
21
1.551623
0
LINE
8
hole
62
5
10
10.252845
20
1.551623
11
10.259981
21
1.535549
0
LINE
8
hole
62
5
10
10.259981
20
1.535549
11
10.269242
21
1.511420
0
LINE
8
hole
62
5
10
10.269242
20
1.511420
11
10.275776
21
1.495414
0
LINE
8
hole
62
5
10
10.275776
20
1.495414
11
10.283962
21
1.471329
0
LINE
8
hole
62
5
10
10.283962
20
1.471329
11
10.290171
21
1.455445
0
LINE
8
hole
62
5
10
10.290171
20
1.455445
11
10.297745
21
1.431498
0
LINE
8
hole
62
5
10
10.297745
20
1.431498
11
10.303351
21
1.415398
0
LINE
8
hole
62
5
10
10.303351
20
1.415398
11
10.310014
21
1.391191
0
LINE
8
hole
62
5
10
10.310014
20
1.391191
11
10.314543
21
1.374523
0
LINE
8
hole
62
5
10
10.314543
20
1.374523
11
10.319704
21
1.349637
0
LINE
8
hole
62
5
10
10.319704
20
1.349637
11
10.322209
21
1.332898
0
LINE
8
hole
62
5
10
10.322209
20
1.332898
11
10.324607
21
1.308118
0
LINE
8
hole
62
5
10
10.324607
20
1.308118
11
10.324342
21
1.289729
0
LINE
8
hole
62
5
10
10.324342
20
1.289729
11
10.322841
21
1.262754
0
LINE
8
hole
62
5
10
10.322841
20
1.262754
11
10.319628
21
1.244902
0
LINE
8
hole
62
5
10
10.319628
20
1.244902
11
10.314108
21
1.218871
0
LINE
8
hole
62
5
10
10.314108
20
1.218871
11
10.308183
21
1.201564
0
LINE
8
hole
62
5
10
10.308183
20
1.201564
11
10.298959
21
1.176374
0
LINE
8
hole
62
5
10
10.298959
20
1.176374
11
10.290467
21
1.160077
0
LINE
8
hole
62
5
10
10.290467
20
1.160077
11
10.277740
21
1.136328
0
LINE
8
hole
62
5
10
10.277740
20
1.136328
11
10.266826
21
1.121462
0
LINE
8
hole
62
5
10
10.266826
20
1.121462
11
10.250782
21
1.099708
0
LINE
8
hole
62
5
10
10.250782
20
1.099708
11
10.237732
21
1.086704
0
LINE
8
hole
62
5
10
10.237732
20
1.086704
11
10.218743
21
1.067501
0
LINE
8
hole
62
5
10
10.218743
20
1.067501
11
10.203923
21
1.056768
0
LINE
8
hole
62
5
10
10.203923
20
1.056768
11
10.182466
21
1.040644
0
LINE
8
hole
62
5
10
10.182466
20
1.040644
11
10.166309
21
1.032314
0
LINE
8
hole
62
5
10
10.166309
20
1.032314
11
10.142944
21
1.019459
0
LINE
8
hole
62
5
10
10.142944
20
1.019459
11
10.125928
21
1.013443
0
LINE
8
hole
62
5
10
10.125928
20
1.013443
11
10.101266
21
1.003779
0
LINE
8
hole
62
5
10
10.101266
20
1.003779
11
10.083714
21
0.999631
0
LINE
8
hole
62
5
10
10.083714
20
0.999631
11
10.058186
21
0.992642
0
LINE
8
hole
62
5
10
10.058186
20
0.992642
11
10.040265
21
0.989581
0
LINE
8
hole
62
5
10
10.040265
20
0.989581
11
10.014119
21
0.984338
0
LINE
8
hole
62
5
10
10.014119
20
0.984338
11
9.995114
21
0.981939
0
LINE
8
hole
62
5
10
9.995114
20
0.981939
11
9.967318
21
0.977914
0
LINE
8
hole
62
5
10
9.967318
20
0.977914
11
9.949773
21
0.976672
0
LINE
8
hole
62
5
10
9.949773
20
0.976672
11
9.924074
21
0.974613
0
LINE
8
hole
62
5
10
9.924074
20
0.974613
11
9.905618
21
0.974250
0
LINE
8
hole
62
5
10
9.905618
20
0.974250
11
9.878571
21
0.973641
0
LINE
8
hole
62
5
10
9.878571
20
0.973641
11
9.860115
21
0.973675
0
LINE
8
hole
62
5
10
9.860115
20
0.973675
11
9.833062
21
0.973725
0
LINE
8
hole
62
5
10
9.833062
20
0.973725
11
9.814606
21
0.973733
0
LINE
8
hole
62
5
10
9.814606
20
0.973733
11
9.787555
21
0.973744
0
LINE
8
hole
62
5
10
9.787555
20
0.973744
11
9.769098
21
0.973726
0
LINE
8
hole
62
5
10
9.769098
20
0.973726
11
9.742047
21
0.973696
0
LINE
8
hole
62
5
10
9.742047
20
0.973696
11
9.723589
21
0.973693
0
LINE
8
hole
62
5
10
9.723589
20
0.973693
11
9.696537
21
0.973687
0
LINE
8
hole
62
5
10
9.696537
20
0.973687
11
9.678099
21
0.973692
0
LINE
8
hole
62
5
10
9.678099
20
0.973692
11
9.651074
21
0.973700
0
LINE
8
hole
62
5
10
9.651074
20
0.973700
11
9.632597
21
0.973701
0
LINE
8
hole
62
5
10
9.632597
20
0.973701
11
9.605516
21
0.973704
0
LINE
8
hole
62
5
10
9.605516
20
0.973704
11
9.587649
21
0.973702
0
LINE
8
hole
62
5
10
9.587649
20
0.973702
11
9.561461
21
0.973700
0
LINE
8
hole
62
5
10
9.561461
20
0.973700
11
9.542414
21
0.973700
0
LINE
8
hole
62
5
10
9.542414
20
0.973700
11
9.514497
21
0.973699
0
LINE
8
hole
62
5
10
9.514497
20
0.973699
11
9.496040
21
0.973699
0
LINE
8
hole
62
5
10
9.496040
20
0.973699
11
9.468987
21
0.973700
0
LINE
8
hole
62
5
10
9.468987
20
0.973700
11
9.450530
21
0.973700
0
LINE
8
hole
62
5
10
9.450530
20
0.973700
11
9.423478
21
0.973700
0
LINE
8
hole
62
5
10
9.423478
20
0.973700
11
9.405021
21
0.973700
0
LINE
8
hole
62
5
10
9.405021
20
0.973700
11
9.377968
21
0.973700
0
LINE
8
hole
62
5
10
9.377968
20
0.973700
11
9.359511
21
0.973700
0
LINE
8
hole
62
5
10
9.359511
20
0.973700
11
9.332458
21
0.973700
0
LINE
8
hole
62
5
10
9.332458
20
0.973700
11
9.314001
21
0.973700
0
LINE
8
hole
62
5
10
9.314001
20
0.973700
11
9.286949
21
0.973700
0
LINE
8
hole
62
5
10
9.286949
20
0.973700
11
9.268491
21
0.973700
0
LINE
8
hole
62
5
10
9.268491
20
0.973700
11
9.241439
21
0.973700
0
LINE
8
hole
62
5
10
9.241439
20
0.973700
11
9.222982
21
0.973700
0
LINE
8
hole
62
5
10
9.222982
20
0.973700
11
9.195929
21
0.973700
0
LINE
8
hole
62
5
10
9.195929
20
0.973700
11
9.177472
21
0.973700
0
LINE
8
hole
62
5
10
9.177472
20
0.973700
11
9.150419
21
0.973700
0
LINE
8
hole
62
5
10
9.150419
20
0.973700
11
9.131962
21
0.973700
0
LINE
8
hole
62
5
10
9.131962
20
0.973700
11
9.104910
21
0.973700
0
LINE
8
hole
62
5
10
9.104910
20
0.973700
11
9.086452
21
0.973700
0
LINE
8
hole
62
5
10
9.086452
20
0.973700
11
9.059400
21
0.973700
0
LINE
8
hole
62
5
10
9.059400
20
0.973700
11
9.040122
21
0.973700
0
LINE
8
hole
62
5
10
9.040122
20
0.973700
11
9.011867
21
0.973700
0
LINE
8
hole
62
5
10
9.011867
20
0.973700
11
8.994230
21
0.973700
0
LINE
8
hole
62
5
10
8.994230
20
0.973700
11
8.968380
21
0.973700
0
LINE
8
hole
62
5
10
8.968380
20
0.973700
11
8.949923
21
0.973700
0
LINE
8
hole
62
5
10
8.949923
20
0.973700
11
8.922870
21
0.973700
0
LINE
8
hole
62
5
10
8.922870
20
0.973700
11
8.904413
21
0.973700
0
LINE
8
hole
62
5
10
8.904413
20
0.973700
11
8.877361
21
0.973700
0
LINE
8
hole
62
5
10
8.877361
20
0.973700
11
8.858903
21
0.973700
0
LINE
8
hole
62
5
10
8.858903
20
0.973700
11
8.831851
21
0.973700
0
LINE
8
hole
62
5
10
8.831851
20
0.973700
11
8.813394
21
0.973700
0
LINE
8
hole
62
5
10
8.813394
20
0.973700
11
8.786341
21
0.973700
0
LINE
8
hole
62
5
10
8.786341
20
0.973700
11
8.767884
21
0.973700
0
LINE
8
hole
62
5
10
8.767884
20
0.973700
11
8.740831
21
0.973700
0
LINE
8
hole
62
5
10
8.740831
20
0.973700
11
8.722391
21
0.973700
0
LINE
8
hole
62
5
10
8.722391
20
0.973700
11
8.695362
21
0.973700
0
LINE
8
hole
62
5
10
8.695362
20
0.973700
11
8.676888
21
0.973700
0
LINE
8
hole
62
5
10
8.676888
20
0.973700
11
8.649812
21
0.973700
0
LINE
8
hole
62
5
10
8.649812
20
0.973700
11
8.631942
21
0.973700
0
LINE
8
hole
62
5
10
8.631942
20
0.973700
11
8.605749
21
0.973700
0
LINE
8
hole
62
5
10
8.605749
20
0.973700
11
8.586705
21
0.973700
0
LINE
8
hole
62
5
10
8.586705
20
0.973700
11
8.558793
21
0.973700
0
LINE
8
hole
62
5
10
8.558793
20
0.973700
11
8.540335
21
0.973700
0
LINE
8
hole
62
5
10
8.540335
20
0.973700
11
8.513283
21
0.973700
0
LINE
8
hole
62
5
10
8.513283
20
0.973700
11
8.494825
21
0.973700
0
LINE
8
hole
62
5
10
8.494825
20
0.973700
11
8.467773
21
0.973700
0
LINE
8
hole
62
5
10
8.467773
20
0.973700
11
8.449316
21
0.973700
0
LINE
8
hole
62
5
10
8.449316
20
0.973700
11
8.422263
21
0.973700
0
LINE
8
hole
62
5
10
8.422263
20
0.973700
11
8.403806
21
0.973700
0
LINE
8
hole
62
5
10
8.403806
20
0.973700
11
8.376754
21
0.973700
0
LINE
8
hole
62
5
10
8.376754
20
0.973700
11
8.358296
21
0.973700
0
LINE
8
hole
62
5
10
8.358296
20
0.973700
11
8.331244
21
0.973700
0
LINE
8
hole
62
5
10
8.331244
20
0.973700
11
8.312786
21
0.973700
0
LINE
8
hole
62
5
10
8.312786
20
0.973700
11
8.285734
21
0.973700
0
LINE
8
hole
62
5
10
8.285734
20
0.973700
11
8.267277
21
0.973700
0
LINE
8
hole
62
5
10
8.267277
20
0.973700
11
8.240224
21
0.973700
0
LINE
8
hole
62
5
10
8.240224
20
0.973700
11
8.221767
21
0.973700
0
LINE
8
hole
62
5
10
8.221767
20
0.973700
11
8.194714
21
0.973700
0
LINE
8
hole
62
5
10
8.194714
20
0.973700
11
8.176257
21
0.973700
0
LINE
8
hole
62
5
10
8.176257
20
0.973700
11
8.149205
21
0.973700
0
LINE
8
hole
62
5
10
8.149205
20
0.973700
11
8.130747
21
0.973700
0
LINE
8
hole
62
5
10
8.130747
20
0.973700
11
8.103695
21
0.973700
0
LINE
8
hole
62
5
10
8.103695
20
0.973700
11
8.084415
21
0.973700
0
LINE
8
hole
62
5
10
8.084415
20
0.973700
11
8.056155
21
0.973700
0
LINE
8
hole
62
5
10
8.056155
20
0.973700
11
8.038521
21
0.973700
0
LINE
8
hole
62
5
10
8.038521
20
0.973700
11
8.012675
21
0.973700
0
LINE
8
hole
62
5
10
8.012675
20
0.973700
11
7.994218
21
0.973699
0
LINE
8
hole
62
5
10
7.994218
20
0.973699
11
7.967166
21
0.973699
0
LINE
8
hole
62
5
10
7.967166
20
0.973699
11
7.948708
21
0.973700
0
LINE
8
hole
62
5
10
7.948708
20
0.973700
11
7.921656
21
0.973700
0
LINE
8
hole
62
5
10
7.921656
20
0.973700
11
7.903199
21
0.973702
0
LINE
8
hole
62
5
10
7.903199
20
0.973702
11
7.876146
21
0.973704
0
LINE
8
hole
62
5
10
7.876146
20
0.973704
11
7.857689
21
0.973702
0
LINE
8
hole
62
5
10
7.857689
20
0.973702
11
7.830636
21
0.973698
0
LINE
8
hole
62
5
10
7.830636
20
0.973698
11
7.812179
21
0.973694
0
LINE
8
hole
62
5
10
7.812179
20
0.973694
11
7.785127
21
0.973686
0
LINE
8
hole
62
5
10
7.785127
20
0.973686
11
7.766683
21
0.973691
0
LINE
8
hole
62
5
10
7.766683
20
0.973691
11
7.739650
21
0.973700
0
LINE
8
hole
62
5
10
7.739650
20
0.973700
11
7.721178
21
0.973718
0
LINE
8
hole
62
5
10
7.721178
20
0.973718
11
7.694106
21
0.973750
0
LINE
8
hole
62
5
10
7.694106
20
0.973750
11
7.676234
21
0.973738
0
LINE
8
hole
62
5
10
7.676234
20
0.973738
11
7.650039
21
0.973718
0
LINE
8
hole
62
5
10
7.650039
20
0.973718
11
7.630998
21
0.973675
0
LINE
8
hole
62
5
10
7.630998
20
0.973675
11
7.603088
21
0.973604
0
LINE
8
hole
62
5
10
7.603088
20
0.973604
11
7.584636
21
0.973873
0
LINE
8
hole
62
5
10
7.584636
20
0.973873
11
7.557594
21
0.974324
0
LINE
8
hole
62
5
10
7.557594
20
0.974324
11
7.539188
21
0.975309
0
LINE
8
hole
62
5
10
7.539188
20
0.975309
11
7.512223
21
0.976965
0
LINE
8
hole
62
5
10
7.512223
20
0.976965
11
7.493929
21
0.978767
0
LINE
8
hole
62
5
10
7.493929
20
0.978767
11
7.467151
21
0.981797
0
LINE
8
hole
62
5
10
7.467151
20
0.981797
11
7.449033
21
0.984383
0
LINE
8
hole
62
5
10
7.449033
20
0.984383
11
7.422551
21
0.988728
0
LINE
8
hole
62
5
10
7.422551
20
0.988728
11
7.404667
21
0.992070
0
LINE
8
hole
62
5
10
7.404667
20
0.992070
11
7.378579
21
0.997686
0
LINE
8
hole
62
5
10
7.378579
20
0.997686
11
7.360987
21
1.001760
0
LINE
8
hole
62
5
10
7.360987
20
1.001760
11
7.335389
21
1.008613
0
LINE
8
hole
62
5
10
7.335389
20
1.008613
11
7.318153
21
1.013415
0
LINE
8
hole
62
5
10
7.318153
20
1.013415
11
7.293153
21
1.021489
0
LINE
8
hole
62
5
10
7.293153
20
1.021489
11
7.276336
21
1.027028
0
LINE
8
hole
62
5
10
7.276336
20
1.027028
11
7.252036
21
1.036317
0
LINE
8
hole
62
5
10
7.252036
20
1.036317
11
7.235679
21
1.042495
0
LINE
8
hole
62
5
10
7.235679
20
1.042495
11
7.212154
21
1.052864
0
LINE
8
hole
62
5
10
7.212154
20
1.052864
11
7.196278
21
1.059489
0
LINE
8
hole
62
5
10
7.196278
20
1.059489
11
7.173577
21
1.070690
0
LINE
8
hole
62
5
10
7.173577
20
1.070690
11
7.157602
21
1.078413
0
LINE
8
hole
62
5
10
7.157602
20
1.078413
11
7.134906
21
1.091372
0
LINE
8
hole
62
5
10
7.134906
20
1.091372
11
7.121019
21
1.100012
0
LINE
8
hole
62
5
10
7.121019
20
1.100012
11
7.101410
21
1.114003
0
LINE
8
hole
62
5
10
7.101410
20
1.114003
11
7.087882
21
1.125184
0
LINE
8
hole
62
5
10
7.087882
20
1.125184
11
7.068872
21
1.142629
0
LINE
8
hole
62
5
10
7.068872
20
1.142629
11
7.056818
21
1.155850
0
LINE
8
hole
62
5
10
7.056818
20
1.155850
11
7.039907
21
1.175958
0
LINE
8
hole
62
5
10
7.039907
20
1.175958
11
7.029719
21
1.190976
0
LINE
8
hole
62
5
10
7.029719
20
1.190976
11
7.015399
21
1.213426
0
LINE
8
hole
62
5
10
7.015399
20
1.213426
11
7.007327
21
1.229908
0
LINE
8
hole
62
5
10
7.007327
20
1.229908
11
6.995911
21
1.254271
0
LINE
8
hole
62
5
10
6.995911
20
1.254271
11
6.990200
21
1.271831
0
LINE
8
hole
62
5
10
6.990200
20
1.271831
11
6.981993
21
1.297615
0
LINE
8
hole
62
5
10
6.981993
20
1.297615
11
6.978929
21
1.315739
0
LINE
8
hole
62
5
10
6.978929
20
1.315739
11
6.974284
21
1.342292
0
LINE
8
hole
62
5
10
6.974284
20
1.342292
11
6.973980
21
1.360544
0
LINE
8
hole
62
5
10
6.973980
20
1.360544
11
6.973041
21
1.387315
0
LINE
8
hole
62
5
10
6.973041
20
1.387315
11
6.974844
21
1.404882
0
LINE
8
hole
62
5
10
6.974844
20
1.404882
11
6.976825
21
1.430705
0
LINE
8
hole
62
5
10
6.976825
20
1.430705
11
6.980300
21
1.449172
0
LINE
8
hole
62
5
10
6.980300
20
1.449172
11
6.984675
21
1.476382
0
LINE
8
hole
62
5
10
6.984675
20
1.476382
11
6.989145
21
1.494091
0
LINE
8
hole
62
5
10
6.989145
20
1.494091
11
6.995103
21
1.520207
0
LINE
8
hole
62
5
10
6.995103
20
1.520207
11
7.000349
21
1.537805
0
LINE
8
hole
62
5
10
7.000349
20
1.537805
11
7.007630
21
1.563724
0
LINE
8
hole
62
5
10
7.007630
20
1.563724
11
7.013556
21
1.581175
0
LINE
8
hole
62
5
10
7.013556
20
1.581175
11
7.022014
21
1.606831
0
LINE
8
hole
62
5
10
7.022014
20
1.606831
11
7.028595
21
1.624068
0
LINE
8
hole
62
5
10
7.028595
20
1.624068
11
7.038147
21
1.649367
0
LINE
8
hole
62
5
10
7.038147
20
1.649367
11
7.045133
21
1.666451
0
LINE
8
hole
62
5
10
7.045133
20
1.666451
11
7.055347
21
1.691502
0
LINE
8
hole
62
5
10
7.055347
20
1.691502
11
7.062372
21
1.708569
0
LINE
8
hole
62
5
10
7.062372
20
1.708569
11
7.072646
21
1.733593
0
LINE
8
hole
62
5
10
7.072646
20
1.733593
11
7.079601
21
1.750688
0
LINE
8
hole
62
5
10
7.079601
20
1.750688
11
7.089753
21
1.775760
0
LINE
8
hole
62
5
10
7.089753
20
1.775760
11
7.096723
21
1.792849
0
LINE
8
hole
62
5
10
7.096723
20
1.792849
11
7.106893
21
1.817916
0
LINE
8
hole
62
5
10
7.106893
20
1.817916
11
7.113910
21
1.834987
0
LINE
8
hole
62
5
10
7.113910
20
1.834987
11
7.124154
21
1.860024
0
LINE
8
hole
62
5
10
7.124154
20
1.860024
11
7.131201
21
1.877081
0
LINE
8
hole
62
5
10
7.131201
20
1.877081
11
7.141486
21
1.902101
0
LINE
8
hole
62
5
10
7.141486
20
1.902101
11
7.148873
21
1.919916
0
LINE
8
hole
62
5
10
7.148873
20
1.919916
11
7.159651
21
1.946048
0
LINE
8
hole
62
5
10
7.159651
20
1.946048
11
7.166429
21
1.962319
0
LINE
8
hole
62
5
10
7.166429
20
1.962319
11
7.176317
21
1.986185
0
LINE
8
hole
62
5
10
7.176317
20
1.986185
11
7.183447
21
2.003208
0
LINE
8
hole
62
5
10
7.183447
20
2.003208
11
7.193849
21
2.028179
0
LINE
8
hole
62
5
10
7.193849
20
2.028179
11
7.201014
21
2.045188
0
LINE
8
hole
62
5
10
7.201014
20
2.045188
11
7.211466
21
2.070137
0
LINE
8
hole
62
5
10
7.211466
20
2.070137
11
7.218667
21
2.087130
0
LINE
8
hole
62
5
10
7.218667
20
2.087130
11
7.229172
21
2.112057
0
LINE
8
hole
62
5
10
7.229172
20
2.112057
11
7.236416
21
2.129032
0
LINE
8
hole
62
5
10
7.236416
20
2.129032
11
7.246982
21
2.153933
0
LINE
8
hole
62
5
10
7.246982
20
2.153933
11
7.254274
21
2.170887
0
LINE
8
hole
62
5
10
7.254274
20
2.170887
11
7.264909
21
2.195759
0
LINE
8
hole
62
5
10
7.264909
20
2.195759
11
7.272258
21
2.212688
0
LINE
8
hole
62
5
10
7.272258
20
2.212688
11
7.282974
21
2.237525
0
LINE
8
hole
62
5
10
7.282974
20
2.237525
11
7.290385
21
2.254427
0
LINE
8
hole
62
5
10
7.290385
20
2.254427
11
7.301192
21
2.279224
0
LINE
8
hole
62
5
10
7.301192
20
2.279224
11
7.308438
21
2.295569
0
LINE
8
hole
62
5
10
7.308438
20
2.295569
11
7.319002
21
2.319550
0
LINE
8
hole
62
5
10
7.319002
20
2.319550
11
7.326793
21
2.336913
0
LINE
8
hole
62
5
10
7.326793
20
2.336913
11
7.338149
21
2.362392
0
LINE
8
hole
62
5
10
7.338149
20
2.362392
11
7.345788
21
2.379191
0
LINE
8
hole
62
5
10
7.345788
20
2.379191
11
7.356918
21
2.403844
0
LINE
8
hole
62
5
10
7.356918
20
2.403844
11
7.364648
21
2.420601
0
LINE
8
hole
62
5
10
7.364648
20
2.420601
11
7.375907
21
2.445195
0
LINE
8
hole
62
5
10
7.375907
20
2.445195
11
7.383742
21
2.461903
0
LINE
8
hole
62
5
10
7.383742
20
2.461903
11
7.395152
21
2.486427
0
LINE
8
hole
62
5
10
7.395152
20
2.486427
11
7.403109
21
2.503077
0
LINE
8
hole
62
5
10
7.403109
20
2.503077
11
7.414697
21
2.527517
0
LINE
8
hole
62
5
10
7.414697
20
2.527517
11
7.422793
21
2.544100
0
LINE
8
hole
62
5
10
7.422793
20
2.544100
11
7.434586
21
2.568442
0
LINE
8
hole
62
5
10
7.434586
20
2.568442
11
7.442839
21
2.584948
0
LINE
8
hole
62
5
10
7.442839
20
2.584948
11
7.454864
21
2.609176
0
LINE
8
hole
62
5
10
7.454864
20
2.609176
11
7.463290
21
2.625594
0
LINE
8
hole
62
5
10
7.463290
20
2.625594
11
7.475574
21
2.649692
0
LINE
8
hole
62
5
10
7.475574
20
2.649692
11
7.484191
21
2.666012
0
LINE
8
hole
62
5
10
7.484191
20
2.666012
11
7.496760
21
2.689964
0
LINE
8
hole
62
5
10
7.496760
20
2.689964
11
7.505584
21
2.706173
0
LINE
8
hole
62
5
10
7.505584
20
2.706173
11
7.518463
21
2.729960
0
LINE
8
hole
62
5
10
7.518463
20
2.729960
11
7.527509
21
2.746047
0
LINE
8
hole
62
5
10
7.527509
20
2.746047
11
7.540723
21
2.769650
0
LINE
8
hole
62
5
10
7.540723
20
2.769650
11
7.550434
21
2.786317
0
LINE
8
hole
62
5
10
7.550434
20
2.786317
11
7.564631
21
2.810766
0
LINE
8
hole
62
5
10
7.564631
20
2.810766
11
7.573754
21
2.825845
0
LINE
8
hole
62
5
10
7.573754
20
2.825845
11
7.587101
21
2.847959
0
LINE
8
hole
62
5
10
7.587101
20
2.847959
11
7.596933
21
2.863579
0
LINE
8
hole
62
5
10
7.596933
20
2.863579
11
7.611331
21
2.886482
0
LINE
8
hole
62
5
10
7.611331
20
2.886482
11
7.621468
21
2.901905
0
LINE
8
hole
62
5
10
7.621468
20
2.901905
11
7.636327
21
2.924511
0
LINE
8
hole
62
5
10
7.636327
20
2.924511
11
7.646790
21
2.939716
0
LINE
8
hole
62
5
10
7.646790
20
2.939716
11
7.662141
21
2.961990
0
LINE
8
hole
62
5
10
7.662141
20
2.961990
11
7.672944
21
2.976954
0
LINE
8
hole
62
5
10
7.672944
20
2.976954
11
7.688809
21
2.998864
0
LINE
8
hole
62
5
10
7.688809
20
2.998864
11
7.699965
21
3.013565
0
LINE
8
hole
62
5
10
7.699965
20
3.013565
11
7.716362
21
3.035078
0
LINE
8
hole
62
5
10
7.716362
20
3.035078
11
7.727877
21
3.049494
0
LINE
8
hole
62
5
10
7.727877
20
3.049494
11
7.744817
21
3.070574
0
LINE
8
hole
62
5
10
7.744817
20
3.070574
11
7.756702
21
3.084692
0
LINE
8
hole
62
5
10
7.756702
20
3.084692
11
7.774201
21
3.105318
0
LINE
8
hole
62
5
10
7.774201
20
3.105318
11
7.786066
21
3.118688
0
LINE
8
hole
62
5
10
7.786066
20
3.118688
11
7.803545
21
3.138205
0
LINE
8
hole
62
5
10
7.803545
20
3.138205
11
7.816549
21
3.152085
0
LINE
8
hole
62
5
10
7.816549
20
3.152085
11
7.835718
21
3.172327
0
LINE
8
hole
62
5
10
7.835718
20
3.172327
11
7.848700
21
3.185428
0
LINE
8
hole
62
5
10
7.848700
20
3.185428
11
7.867847
21
3.204510
0
LINE
8
hole
62
5
10
7.867847
20
3.204510
11
7.881192
21
3.217235
0
LINE
8
hole
62
5
10
7.881192
20
3.217235
11
7.900882
21
3.235748
0
LINE
8
hole
62
5
10
7.900882
20
3.235748
11
7.914592
21
3.248071
0
LINE
8
hole
62
5
10
7.914592
20
3.248071
11
7.934830
21
3.265973
0
LINE
8
hole
62
5
10
7.934830
20
3.265973
11
7.948907
21
3.277863
0
LINE
8
hole
62
5
10
7.948907
20
3.277863
11
7.969700
21
3.295103
0
LINE
8
hole
62
5
10
7.969700
20
3.295103
11
7.984149
21
3.306522
0
LINE
8
hole
62
5
10
7.984149
20
3.306522
11
8.005505
21
3.323039
0
LINE
8
hole
62
5
10
8.005505
20
3.323039
11
8.020333
21
3.333942
0
LINE
8
hole
62
5
10
8.020333
20
3.333942
11
8.042259
21
3.349664
0
LINE
8
hole
62
5
10
8.042259
20
3.349664
11
8.057470
21
3.360000
0
LINE
8
hole
62
5
10
8.057470
20
3.360000
11
8.079973
21
3.374846
0
LINE
8
hole
62
5
10
8.079973
20
3.374846
11
8.095571
21
3.384554
0
LINE
8
hole
62
5
10
8.095571
20
3.384554
11
8.118654
21
3.398431
0
LINE
8
hole
62
5
10
8.118654
20
3.398431
11
8.134636
21
3.407446
0
LINE
8
hole
62
5
10
8.134636
20
3.407446
11
8.158295
21
3.420254
0
LINE
8
hole
62
5
10
8.158295
20
3.420254
11
8.174655
21
3.428506
0
LINE
8
hole
62
5
10
8.174655
20
3.428506
11
8.198873
21
3.440138
0
LINE
8
hole
62
5
10
8.198873
20
3.440138
11
8.216362
21
3.447867
0
LINE
8
hole
62
5
10
8.216362
20
3.447867
11
8.242247
21
3.458646
0
LINE
8
hole
62
5
10
8.242247
20
3.458646
11
8.258545
21
3.464829
0
LINE
8
hole
62
5
10
8.258545
20
3.464829
11
8.282655
21
3.473330
0
LINE
8
hole
62
5
10
8.282655
20
3.473330
11
8.300030
21
3.478831
0
LINE
8
hole
62
5
10
8.300030
20
3.478831
11
8.325712
21
3.486244
0
LINE
8
hole
62
5
10
8.325712
20
3.486244
11
8.343357
21
3.490663
0
LINE
8
hole
62
5
10
8.343357
20
3.490663
11
8.369409
21
3.496431
0
LINE
8
hole
62
5
10
8.369409
20
3.496431
11
8.387273
21
3.499686
0
LINE
8
hole
62
5
10
8.387273
20
3.499686
11
8.413608
21
3.503696
0
LINE
8
hole
62
5
10
8.413608
20
3.503696
11
8.431629
21
3.505716
0
LINE
8
hole
62
5
10
8.431629
20
3.505716
11
8.458145
21
3.507876
0
LINE
8
hole
62
5
10
8.458145
20
3.507876
11
8.476253
21
3.508593
0
LINE
8
hole
62
5
10
8.476253
20
3.508593
11
8.502840
21
3.508822
0
LINE
8
hole
62
5
10
8.502840
20
3.508822
11
8.520953
21
3.508179
0
LINE
8
hole
62
5
10
8.520953
20
3.508179
11
8.547487
21
3.506419
0
LINE
8
hole
62
5
10
8.547487
20
3.506419
11
8.565522
21
3.504365
0
LINE
8
hole
62
5
10
8.565522
20
3.504365
11
8.591878
21
3.500572
0
LINE
8
hole
62
5
10
8.591878
20
3.500572
11
8.609175
21
3.497213
0
LINE
8
hole
62
5
10
8.609175
20
3.497213
11
8.634403
21
3.491586
0
LINE
8
hole
62
5
10
8.634403
20
3.491586
11
8.652501
21
3.486531
0
LINE
8
hole
62
5
10
8.652501
20
3.486531
11
8.678849
21
3.478449
0
LINE
8
hole
62
5
10
8.678849
20
3.478449
11
8.696005
21
3.472171
0
LINE
8
hole
62
5
10
8.696005
20
3.472171
11
8.720948
21
3.462387
0
LINE
8
hole
62
5
10
8.720948
20
3.462387
11
8.737627
21
3.454864
0
LINE
8
hole
62
5
10
8.737627
20
3.454864
11
8.761847
21
3.443318
0
LINE
8
hole
62
5
10
8.761847
20
3.443318
11
8.777989
21
3.434655
0
LINE
8
hole
62
5
10
8.777989
20
3.434655
11
8.801407
21
3.421494
0
LINE
8
hole
62
5
10
8.801407
20
3.421494
11
8.816969
21
3.411795
0
LINE
8
hole
62
5
10
8.816969
20
3.411795
11
8.839524
21
3.397161
0
LINE
8
hole
62
5
10
8.839524
20
3.397161
11
8.854475
21
3.386521
0
LINE
8
hole
62
5
10
8.854475
20
3.386521
11
8.876124
21
3.370547
0
LINE
8
hole
62
5
10
8.876124
20
3.370547
11
8.890441
21
3.359054
0
LINE
8
hole
62
5
10
8.890441
20
3.359054
11
8.911152
21
3.341861
0
LINE
8
hole
62
5
10
8.911152
20
3.341861
11
8.924819
21
3.329594
0
LINE
8
boundary
62
5
10
11.384125
20
9.242968
11
11.340326
21
9.306801
0
LINE
8
boundary
62
5
10
11.340326
20
9.306801
11
11.328760
21
9.318165
0
LINE
8
boundary
62
5
10
11.328760
20
9.318165
11
11.275951
21
9.373908
0
LINE
8
boundary
62
5
10
11.275951
20
9.373908
11
11.262653
21
9.383439
0
LINE
8
boundary
62
5
10
11.262653
20
9.383439
11
11.201189
21
9.430715
0
LINE
8
boundary
62
5
10
11.201189
20
9.430715
11
11.186663
21
9.438293
0
LINE
8
boundary
62
5
10
11.186663
20
9.438293
11
11.118941
21
9.476360
0
LINE
8
boundary
62
5
10
11.118941
20
9.476360
11
11.103670
21
9.482389
0
LINE
8
boundary
62
5
10
11.103670
20
9.482389
11
11.032001
21
9.512609
0
LINE
8
boundary
62
5
10
11.032001
20
9.512609
11
11.016333
21
9.517745
0
LINE
8
boundary
62
5
10
11.016333
20
9.517745
11
10.942371
21
9.542840
0
LINE
8
boundary
62
5
10
10.942371
20
9.542840
11
10.926630
21
9.547766
0
LINE
8
boundary
62
5
10
10.926630
20
9.547766
11
10.851955
21
9.571066
0
LINE
8
boundary
62
5
10
10.851955
20
9.571066
11
10.836283
21
9.576055
0
LINE
8
boundary
62
5
10
10.836283
20
9.576055
11
10.761815
21
9.599393
0
LINE
8
boundary
62
5
10
10.761815
20
9.599393
11
10.746215
21
9.604542
0
LINE
8
boundary
62
5
10
10.746215
20
9.604542
11
10.672161
21
9.628801
0
LINE
8
boundary
62
5
10
10.672161
20
9.628801
11
10.656551
21
9.633981
0
LINE
8
boundary
62
5
10
10.656551
20
9.633981
11
10.582538
21
9.658574
0
LINE
8
boundary
62
5
10
10.582538
20
9.658574
11
10.566907
21
9.663726
0
LINE
8
boundary
62
5
10
10.566907
20
9.663726
11
10.492825
21
9.688244
0
LINE
8
boundary
62
5
10
10.492825
20
9.688244
11
10.477340
21
9.693294
0
LINE
8
boundary
62
5
10
10.477340
20
9.693294
11
10.403929
21
9.717292
0
LINE
8
boundary
62
5
10
10.403929
20
9.717292
11
10.388106
21
9.722443
0
LINE
8
boundary
62
5
10
10.388106
20
9.722443
11
10.313070
21
9.746867
0
LINE
8
boundary
62
5
10
10.313070
20
9.746867
11
10.297743
21
9.751867
0
LINE
8
boundary
62
5
10
10.297743
20
9.751867
11
10.225047
21
9.775555
0
LINE
8
boundary
62
5
10
10.225047
20
9.775555
11
10.209722
21
9.780570
0
LINE
8
boundary
62
5
10
10.209722
20
9.780570
11
10.137037
21
9.804342
0
LINE
8
boundary
62
5
10
10.137037
20
9.804342
11
10.120765
21
9.809666
0
LINE
8
boundary
62
5
10
10.120765
20
9.809666
11
10.043599
21
9.834919
0
LINE
8
boundary
62
5
10
10.043599
20
9.834919
11
10.028648
21
9.839802
0
LINE
8
boundary
62
5
10
10.028648
20
9.839802
11
9.957754
21
9.862957
0
LINE
8
boundary
62
5
10
9.957754
20
9.862957
11
9.941410
21
9.868286
0
LINE
8
boundary
62
5
10
9.941410
20
9.868286
11
9.863913
21
9.893533
0
LINE
8
boundary
62
5
10
9.863913
20
9.893533
11
9.848257
21
9.898652
0
LINE
8
boundary
62
5
10
9.848257
20
9.898652
11
9.774012
21
9.922903
0
LINE
8
boundary
62
5
10
9.774012
20
9.922903
11
9.757641
21
9.928284
0
LINE
8
boundary
62
5
10
9.757641
20
9.928284
11
9.679989
21
9.953825
0
LINE
8
boundary
62
5
10
9.679989
20
9.953825
11
9.665096
21
9.958740
0
LINE
8
boundary
62
5
10
9.665096
20
9.958740
11
9.594450
21
9.982140
0
LINE
8
boundary
62
5
10
9.594450
20
9.982140
11
9.578849
21
9.987238
0
LINE
8
boundary
62
5
10
9.578849
20
9.987238
11
9.504876
21
10.011513
0
LINE
8
boundary
62
5
10
9.504876
20
10.011513
11
9.489262
21
10.016520
0
LINE
8
boundary
62
5
10
9.489262
20
10.016520
11
9.415273
21
10.040213
0
LINE
8
boundary
62
5
10
9.415273
20
10.040213
11
9.399536
21
10.045172
0
LINE
8
boundary
62
5
10
9.399536
20
10.045172
11
9.324984
21
10.068349
0
LINE
8
boundary
62
5
10
9.324984
20
10.068349
11
9.309178
21
10.073499
0
LINE
8
boundary
62
5
10
9.309178
20
10.073499
11
9.234192
21
10.097534
0
LINE
8
boundary
62
5
10
9.234192
20
10.097534
11
9.218429
21
10.103031
0
LINE
8
boundary
62
5
10
9.218429
20
10.103031
11
9.143479
21
10.129251
0
LINE
8
boundary
62
5
10
9.143479
20
10.129251
11
9.128227
21
10.134886
0
LINE
8
boundary
62
5
10
9.128227
20
10.134886
11
9.055621
21
10.162739
0
LINE
8
boundary
62
5
10
9.055621
20
10.162739
11
9.040434
21
10.167845
0
LINE
8
boundary
62
5
10
9.040434
20
10.167845
11
8.968418
21
10.193444
0
LINE
8
boundary
62
5
10
8.968418
20
10.193444
11
8.953797
21
10.196496
0
LINE
8
boundary
62
5
10
8.953797
20
10.196496
11
8.884931
21
10.211664
0
LINE
8
boundary
62
5
10
8.884931
20
10.211664
11
8.868407
21
10.209907
0
LINE
8
boundary
62
5
10
8.868407
20
10.209907
11
8.790935
21
10.200991
0
LINE
8
boundary
62
5
10
8.790935
20
10.200991
11
8.777802
21
10.191647
0
LINE
8
boundary
62
5
10
8.777802
20
10.191647
11
8.716183
21
10.146485
0
LINE
8
boundary
62
5
10
8.716183
20
10.146485
11
8.707456
21
10.132076
0
LINE
8
boundary
62
5
10
8.707456
20
10.132076
11
8.666048
21
10.064012
0
LINE
8
boundary
62
5
10
8.666048
20
10.064012
11
8.661498
21
10.048588
0
LINE
8
boundary
62
5
10
8.661498
20
10.048588
11
8.639210
21
9.975976
0
LINE
8
boundary
62
5
10
8.639210
20
9.975976
11
8.638623
21
9.958758
0
LINE
8
boundary
62
5
10
8.638623
20
9.958758
11
8.634258
21
9.877182
0
LINE
8
boundary
62
5
10
8.634258
20
9.877182
11
8.639302
21
9.861834
0
LINE
8
boundary
62
5
10
8.639302
20
9.861834
11
8.661341
21
9.788430
0
LINE
8
boundary
62
5
10
8.661341
20
9.788430
11
8.672839
21
9.776168
0
LINE
8
boundary
62
5
10
8.672839
20
9.776168
11
8.726748
21
9.718111
0
LINE
8
boundary
62
5
10
8.726748
20
9.718111
11
8.741641
21
9.710543
0
LINE
8
boundary
62
5
10
8.741641
20
9.710543
11
8.813440
21
9.675691
0
LINE
8
boundary
62
5
10
8.813440
20
9.675691
11
8.829636
21
9.670914
0
LINE
8
boundary
62
5
10
8.829636
20
9.670914
11
8.908182
21
9.649413
0
LINE
8
boundary
62
5
10
8.908182
20
9.649413
11
8.923806
21
9.646111
0
LINE
8
boundary
62
5
10
8.923806
20
9.646111
11
8.999080
21
9.631262
0
LINE
8
boundary
62
5
10
8.999080
20
9.631262
11
9.014656
21
9.628123
0
LINE
8
boundary
62
5
10
9.014656
20
9.628123
11
9.088534
21
9.613442
0
LINE
8
boundary
62
5
10
9.088534
20
9.613442
11
9.103969
21
9.609270
0
LINE
8
boundary
62
5
10
9.103969
20
9.609270
11
9.175618
21
9.588784
0
LINE
8
boundary
62
5
10
9.175618
20
9.588784
11
9.190174
21
9.580972
0
LINE
8
boundary
62
5
10
9.190174
20
9.580972
11
9.255991
21
9.541806
0
LINE
8
boundary
62
5
10
9.255991
20
9.541806
11
9.264456
21
9.527924
0
LINE
8
boundary
62
5
10
9.264456
20
9.527924
11
9.301311
21
9.459158
0
LINE
8
boundary
62
5
10
9.301311
20
9.459158
11
9.301488
21
9.442729
0
LINE
8
boundary
62
5
10
9.301488
20
9.442729
11
9.301503
21
9.363504
0
LINE
8
boundary
62
5
10
9.301503
20
9.363504
11
9.297604
21
9.347456
0
LINE
8
boundary
62
5
10
9.297604
20
9.347456
11
9.279380
21
9.271425
0
LINE
8
boundary
62
5
10
9.279380
20
9.271425
11
9.273877
21
9.256344
0
LINE
8
boundary
62
5
10
9.273877
20
9.256344
11
9.248042
21
9.185475
0
LINE
8
boundary
62
5
10
9.248042
20
9.185475
11
9.241703
21
9.170100
0
LINE
8
boundary
62
5
10
9.241703
20
9.170100
11
9.211364
21
9.097606
0
LINE
8
boundary
62
5
10
9.211364
20
9.097606
11
9.204937
21
9.082319
0
LINE
8
boundary
62
5
10
9.204937
20
9.082319
11
9.174061
21
9.009867
0
LINE
8
boundary
62
5
10
9.174061
20
9.009867
11
9.167913
21
8.994626
0
LINE
8
boundary
62
5
10
9.167913
20
8.994626
11
9.138631
21
8.922164
0
LINE
8
boundary
62
5
10
9.138631
20
8.922164
11
9.132664
21
8.906885
0
LINE
8
boundary
62
5
10
9.132664
20
8.906885
11
9.104440
21
8.834310
0
LINE
8
boundary
62
5
10
9.104440
20
8.834310
11
9.098499
21
8.818992
0
LINE
8
boundary
62
5
10
9.098499
20
8.818992
11
9.070436
21
8.746335
0
LINE
8
boundary
62
5
10
9.070436
20
8.746335
11
9.064428
21
8.731012
0
LINE
8
boundary
62
5
10
9.064428
20
8.731012
11
9.035979
21
8.658396
0
LINE
8
boundary
62
5
10
9.035979
20
8.658396
11
9.029917
21
8.643073
0
LINE
8
boundary
62
5
10
9.029917
20
8.643073
11
9.001155
21
8.570448
0
LINE
8
boundary
62
5
10
9.001155
20
8.570448
11
8.995084
21
8.555143
0
LINE
8
boundary
62
5
10
8.995084
20
8.555143
11
8.966265
21
8.482570
0
LINE
8
boundary
62
5
10
8.966265
20
8.482570
11
8.960285
21
8.467453
0
LINE
8
boundary
62
5
10
8.960285
20
8.467453
11
8.931915
21
8.395753
0
LINE
8
boundary
62
5
10
8.931915
20
8.395753
11
8.925802
21
8.380260
0
LINE
8
boundary
62
5
10
8.925802
20
8.380260
11
8.896816
21
8.306778
0
LINE
8
boundary
62
5
10
8.896816
20
8.306778
11
8.890912
21
8.291803
0
LINE
8
boundary
62
5
10
8.890912
20
8.291803
11
8.862925
21
8.220786
0
LINE
8
boundary
62
5
10
8.862925
20
8.220786
11
8.857007
21
8.205784
0
LINE
8
boundary
62
5
10
8.857007
20
8.205784
11
8.828947
21
8.134645
0
LINE
8
boundary
62
5
10
8.828947
20
8.134645
11
8.822650
21
8.118692
0
LINE
8
boundary
62
5
10
8.822650
20
8.118692
11
8.792786
21
8.043045
0
LINE
8
boundary
62
5
10
8.792786
20
8.043045
11
8.787019
21
8.028441
0
LINE
8
boundary
62
5
10
8.787019
20
8.028441
11
8.759669
21
7.959185
0
LINE
8
boundary
62
5
10
8.759669
20
7.959185
11
8.753347
21
7.943172
0
LINE
8
boundary
62
5
10
8.753347
20
7.943172
11
8.723365
21
7.867235
0
LINE
8
boundary
62
5
10
8.723365
20
7.867235
11
8.717322
21
7.851927
0
LINE
8
boundary
62
5
10
8.717322
20
7.851927
11
8.709626
21
7.832431
0
LINE
8
boundary
62
5
10
8.709626
20
7.832431
11
8.728376
21
7.813681
0
LINE
8
boundary
62
5
10
8.728376
20
7.813681
11
8.934233
21
7.813681
0
LINE
8
boundary
62
5
10
8.934233
20
7.813681
11
8.954510
21
7.827229
0
LINE
8
boundary
62
5
10
8.954510
20
7.827229
11
8.978428
21
7.831986
0
LINE
8
boundary
62
5
10
8.978428
20
7.831986
11
9.002345
21
7.827229
0
LINE
8
boundary
62
5
10
9.002345
20
7.827229
11
9.022622
21
7.813681
0
LINE
8
boundary
62
5
10
9.022622
20
7.813681
11
9.036170
21
7.793404
0
LINE
8
boundary
62
5
10
9.036170
20
7.793404
11
9.040928
21
7.769486
0
LINE
8
boundary
62
5
10
9.040928
20
7.769486
11
9.036170
21
7.745569
0
LINE
8
boundary
62
5
10
9.036170
20
7.745569
11
9.022622
21
7.725292
0
LINE
8
boundary
62
5
10
9.022622
20
7.725292
11
9.022622
21
7.527069
0
LINE
8
boundary
62
5
10
9.022622
20
7.527069
11
9.036170
21
7.506792
0
LINE
8
boundary
62
5
10
9.036170
20
7.506792
11
9.040928
21
7.482875
0
LINE
8
boundary
62
5
10
9.040928
20
7.482875
11
9.036170
21
7.458957
0
LINE
8
boundary
62
5
10
9.036170
20
7.458957
11
9.022622
21
7.438681
0
LINE
8
boundary
62
5
10
9.022622
20
7.438681
11
9.002345
21
7.425132
0
LINE
8
boundary
62
5
10
9.002345
20
7.425132
11
8.978428
21
7.420375
0
LINE
8
boundary
62
5
10
8.978428
20
7.420375
11
8.954510
21
7.425132
0
LINE
8
boundary
62
5
10
8.954510
20
7.425132
11
8.934233
21
7.438681
0
LINE
8
boundary
62
5
10
8.934233
20
7.438681
11
8.565553
21
7.438681
0
LINE
8
boundary
62
5
10
8.565553
20
7.438681
11
8.546803
21
7.419931
0
LINE
8
boundary
62
5
10
8.546803
20
7.419931
11
8.543829
21
7.412397
0
LINE
8
boundary
62
5
10
8.543829
20
7.412397
11
8.515171
21
7.339800
0
LINE
8
boundary
62
5
10
8.515171
20
7.339800
11
8.509128
21
7.324491
0
LINE
8
boundary
62
5
10
8.509128
20
7.324491
11
8.480472
21
7.251894
0
LINE
8
boundary
62
5
10
8.480472
20
7.251894
11
8.474429
21
7.236585
0
LINE
8
boundary
62
5
10
8.474429
20
7.236585
11
8.445772
21
7.163987
0
LINE
8
boundary
62
5
10
8.445772
20
7.163987
11
8.439787
21
7.148825
0
LINE
8
boundary
62
5
10
8.439787
20
7.148825
11
8.411404
21
7.076921
0
LINE
8
boundary
62
5
10
8.411404
20
7.076921
11
8.405304
21
7.061466
0
LINE
8
boundary
62
5
10
8.405304
20
7.061466
11
8.376373
21
6.988175
0
LINE
8
boundary
62
5
10
8.376373
20
6.988175
11
8.370330
21
6.972866
0
LINE
8
boundary
62
5
10
8.370330
20
6.972866
11
8.341673
21
6.900269
0
LINE
8
boundary
62
5
10
8.341673
20
6.900269
11
8.335356
21
6.884268
0
LINE
8
boundary
62
5
10
8.335356
20
6.884268
11
8.305403
21
6.808385
0
LINE
8
boundary
62
5
10
8.305403
20
6.808385
11
8.299633
21
6.793769
0
LINE
8
boundary
62
5
10
8.299633
20
6.793769
11
8.272273
21
6.724456
0
LINE
8
boundary
62
5
10
8.272273
20
6.724456
11
8.266230
21
6.709147
0
LINE
8
boundary
62
5
10
8.266230
20
6.709147
11
8.237574
21
6.636551
0
LINE
8
boundary
62
5
10
8.237574
20
6.636551
11
8.231660
21
6.621570
0
LINE
8
boundary
62
5
10
8.231660
20
6.621570
11
8.203616
21
6.550525
0
LINE
8
boundary
62
5
10
8.203616
20
6.550525
11
8.197444
21
6.534888
0
LINE
8
boundary
62
5
10
8.197444
20
6.534888
11
8.168174
21
6.460738
0
LINE
8
boundary
62
5
10
8.168174
20
6.460738
11
8.161993
21
6.445080
0
LINE
8
boundary
62
5
10
8.161993
20
6.445080
11
8.132682
21
6.370825
0
LINE
8
boundary
62
5
10
8.132682
20
6.370825
11
8.126777
21
6.355866
0
LINE
8
boundary
62
5
10
8.126777
20
6.355866
11
8.098774
21
6.284926
0
LINE
8
boundary
62
5
10
8.098774
20
6.284926
11
8.092731
21
6.269617
0
LINE
8
boundary
62
5
10
8.092731
20
6.269617
11
8.064074
21
6.197019
0
LINE
8
boundary
62
5
10
8.064074
20
6.197019
11
8.058031
21
6.181710
0
LINE
8
boundary
62
5
10
8.058031
20
6.181710
11
8.029375
21
6.109113
0
LINE
8
boundary
62
5
10
8.029375
20
6.109113
11
8.023332
21
6.093804
0
LINE
8
boundary
62
5
10
8.023332
20
6.093804
11
7.994675
21
6.021208
0
LINE
8
boundary
62
5
10
7.994675
20
6.021208
11
7.988632
21
6.005899
0
LINE
8
boundary
62
5
10
7.988632
20
6.005899
11
7.959975
21
5.933301
0
LINE
8
boundary
62
5
10
7.959975
20
5.933301
11
7.953932
21
5.917992
0
LINE
8
boundary
62
5
10
7.953932
20
5.917992
11
7.925275
21
5.845395
0
LINE
8
boundary
62
5
10
7.925275
20
5.845395
11
7.919232
21
5.830086
0
LINE
8
boundary
62
5
10
7.919232
20
5.830086
11
7.890576
21
5.757489
0
LINE
8
boundary
62
5
10
7.890576
20
5.757489
11
7.884533
21
5.742180
0
LINE
8
boundary
62
5
10
7.884533
20
5.742180
11
7.855876
21
5.669583
0
LINE
8
boundary
62
5
10
7.855876
20
5.669583
11
7.849833
21
5.654274
0
LINE
8
boundary
62
5
10
7.849833
20
5.654274
11
7.821176
21
5.581676
0
LINE
8
boundary
62
5
10
7.821176
20
5.581676
11
7.815133
21
5.566368
0
LINE
8
boundary
62
5
10
7.815133
20
5.566368
11
7.786476
21
5.493770
0
LINE
8
boundary
62
5
10
7.786476
20
5.493770
11
7.780354
21
5.478261
0
LINE
8
boundary
62
5
10
7.780354
20
5.478261
11
7.751323
21
5.404716
0
LINE
8
boundary
62
5
10
7.751323
20
5.404716
11
7.745359
21
5.389607
0
LINE
8
boundary
62
5
10
7.745359
20
5.389607
11
7.717076
21
5.317958
0
LINE
8
boundary
62
5
10
7.717076
20
5.317958
11
7.711013
21
5.302598
0
LINE
8
boundary
62
5
10
7.711013
20
5.302598
11
7.682259
21
5.229754
0
LINE
8
boundary
62
5
10
7.682259
20
5.229754
11
7.676340
21
5.214758
0
LINE
8
boundary
62
5
10
7.676340
20
5.214758
11
7.648268
21
5.143644
0
LINE
8
boundary
62
5
10
7.648268
20
5.143644
11
7.642122
21
5.128074
0
LINE
8
boundary
62
5
10
7.642122
20
5.128074
11
7.612977
21
5.054239
0
LINE
8
boundary
62
5
10
7.612977
20
5.054239
11
7.607062
21
5.039253
0
LINE
8
boundary
62
5
10
7.607062
20
5.039253
11
7.579009
21
4.968186
0
LINE
8
boundary
62
5
10
7.579009
20
4.968186
11
7.572839
21
4.952554
0
LINE
8
boundary
62
5
10
7.572839
20
4.952554
11
7.543578
21
4.878427
0
LINE
8
boundary
62
5
10
7.543578
20
4.878427
11
7.537535
21
4.863118
0
LINE
8
boundary
62
5
10
7.537535
20
4.863118
11
7.508878
21
4.790521
0
LINE
8
boundary
62
5
10
7.508878
20
4.790521
11
7.502835
21
4.775212
0
LINE
8
boundary
62
5
10
7.502835
20
4.775212
11
7.474178
21
4.702615
0
LINE
8
boundary
62
5
10
7.474178
20
4.702615
11
7.468135
21
4.687306
0
LINE
8
boundary
62
5
10
7.468135
20
4.687306
11
7.439478
21
4.614709
0
LINE
8
boundary
62
5
10
7.439478
20
4.614709
11
7.433435
21
4.599400
0
LINE
8
boundary
62
5
10
7.433435
20
4.599400
11
7.404779
21
4.526803
0
LINE
8
boundary
62
5
10
7.404779
20
4.526803
11
7.398736
21
4.511494
0
LINE
8
boundary
62
5
10
7.398736
20
4.511494
11
7.370078
21
4.438897
0
LINE
8
boundary
62
5
10
7.370078
20
4.438897
11
7.364036
21
4.423587
0
LINE
8
boundary
62
5
10
7.364036
20
4.423587
11
7.335379
21
4.350990
0
LINE
8
boundary
62
5
10
7.335379
20
4.350990
11
7.329336
21
4.335681
0
LINE
8
boundary
62
5
10
7.329336
20
4.335681
11
7.300679
21
4.263084
0
LINE
8
boundary
62
5
10
7.300679
20
4.263084
11
7.294636
21
4.247775
0
LINE
8
boundary
62
5
10
7.294636
20
4.247775
11
7.265979
21
4.175178
0
LINE
8
boundary
62
5
10
7.265979
20
4.175178
11
7.259843
21
4.159633
0
LINE
8
boundary
62
5
10
7.259843
20
4.159633
11
7.230744
21
4.085915
0
LINE
8
boundary
62
5
10
7.230744
20
4.085915
11
7.224794
21
4.070842
0
LINE
8
boundary
62
5
10
7.224794
20
4.070842
11
7.196580
21
3.999366
0
LINE
8
boundary
62
5
10
7.196580
20
3.999366
11
7.190537
21
3.984057
0
LINE
8
boundary
62
5
10
7.190537
20
3.984057
11
7.161880
21
3.911460
0
LINE
8
boundary
62
5
10
7.161880
20
3.911460
11
7.155837
21
3.896151
0
LINE
8
boundary
62
5
10
7.155837
20
3.896151
11
7.127180
21
3.823553
0
LINE
8
boundary
62
5
10
7.127180
20
3.823553
11
7.121137
21
3.808244
0
LINE
8
boundary
62
5
10
7.121137
20
3.808244
11
7.092480
21
3.735647
0
LINE
8
boundary
62
5
10
7.092480
20
3.735647
11
7.086711
21
3.721032
0
LINE
8
boundary
62
5
10
7.086711
20
3.721032
11
7.059354
21
3.651727
0
LINE
8
boundary
62
5
10
7.059354
20
3.651727
11
7.053015
21
3.635669
0
LINE
8
boundary
62
5
10
7.053015
20
3.635669
11
7.022955
21
3.559518
0
LINE
8
boundary
62
5
10
7.022955
20
3.559518
11
7.016934
21
3.544264
0
LINE
8
boundary
62
5
10
7.016934
20
3.544264
11
6.988381
21
3.471929
0
LINE
8
boundary
62
5
10
6.988381
20
3.471929
11
6.982049
21
3.455888
0
LINE
8
boundary
62
5
10
6.982049
20
3.455888
11
6.952022
21
3.379818
0
LINE
8
boundary
62
5
10
6.952022
20
3.379818
11
6.946268
21
3.365242
0
LINE
8
boundary
62
5
10
6.946268
20
3.365242
11
6.918981
21
3.296117
0
LINE
8
boundary
62
5
10
6.918981
20
3.296117
11
6.912938
21
3.280808
0
LINE
8
boundary
62
5
10
6.912938
20
3.280808
11
6.884281
21
3.208210
0
LINE
8
boundary
62
5
10
6.884281
20
3.208210
11
6.878238
21
3.192901
0
LINE
8
boundary
62
5
10
6.878238
20
3.192901
11
6.849582
21
3.120304
0
LINE
8
boundary
62
5
10
6.849582
20
3.120304
11
6.843539
21
3.104995
0
LINE
8
boundary
62
5
10
6.843539
20
3.104995
11
6.814882
21
3.032398
0
LINE
8
boundary
62
5
10
6.814882
20
3.032398
11
6.808839
21
3.017089
0
LINE
8
boundary
62
5
10
6.808839
20
3.017089
11
6.780182
21
2.944492
0
LINE
8
boundary
62
5
10
6.780182
20
2.944492
11
6.774139
21
2.929183
0
LINE
8
boundary
62
5
10
6.774139
20
2.929183
11
6.745483
21
2.856585
0
LINE
8
boundary
62
5
10
6.745483
20
2.856585
11
6.739440
21
2.841277
0
LINE
8
boundary
62
5
10
6.739440
20
2.841277
11
6.710783
21
2.768680
0
LINE
8
boundary
62
5
10
6.710783
20
2.768680
11
6.704894
21
2.753762
0
LINE
8
boundary
62
5
10
6.704894
20
2.753762
11
6.676968
21
2.683018
0
LINE
8
boundary
62
5
10
6.676968
20
2.683018
11
6.670771
21
2.667318
0
LINE
8
boundary
62
5
10
6.670771
20
2.667318
11
6.661411
21
2.643608
0
LINE
8
boundary
62
5
10
6.661411
20
2.643608
11
6.661411
21
2.643608
0
LINE
8
boundary
62
5
10
6.661411
20
2.643608
11
6.680161
21
2.624858
0
LINE
8
boundary
62
5
10
6.680161
20
2.624858
11
6.899156
21
2.624858
0
LINE
8
boundary
62
5
10
6.899156
20
2.624858
11
6.919432
21
2.638406
0
LINE
8
boundary
62
5
10
6.919432
20
2.638406
11
6.943350
21
2.643164
0
LINE
8
boundary
62
5
10
6.943350
20
2.643164
11
6.967268
21
2.638406
0
LINE
8
boundary
62
5
10
6.967268
20
2.638406
11
6.987544
21
2.624858
0
LINE
8
boundary
62
5
10
6.987544
20
2.624858
11
7.001093
21
2.604582
0
LINE
8
boundary
62
5
10
7.001093
20
2.604582
11
7.005850
21
2.580664
0
LINE
8
boundary
62
5
10
7.005850
20
2.580664
11
7.001093
21
2.556746
0
LINE
8
boundary
62
5
10
7.001093
20
2.556746
11
6.987544
21
2.536470
0
LINE
8
boundary
62
5
10
6.987544
20
2.536470
11
6.987544
21
2.338246
0
LINE
8
boundary
62
5
10
6.987544
20
2.338246
11
7.001093
21
2.317970
0
LINE
8
boundary
62
5
10
7.001093
20
2.317970
11
7.005850
21
2.294052
0
LINE
8
boundary
62
5
10
7.005850
20
2.294052
11
7.001093
21
2.270134
0
LINE
8
boundary
62
5
10
7.001093
20
2.270134
11
6.987544
21
2.249858
0
LINE
8
boundary
62
5
10
6.987544
20
2.249858
11
6.967268
21
2.236310
0
LINE
8
boundary
62
5
10
6.967268
20
2.236310
11
6.943350
21
2.231552
0
LINE
8
boundary
62
5
10
6.943350
20
2.231552
11
6.919432
21
2.236310
0
LINE
8
boundary
62
5
10
6.919432
20
2.236310
11
6.899156
21
2.249858
0
LINE
8
boundary
62
5
10
6.899156
20
2.249858
11
6.517337
21
2.249858
0
LINE
8
boundary
62
5
10
6.517337
20
2.249858
11
6.498587
21
2.231108
0
LINE
8
boundary
62
5
10
6.498587
20
2.231108
11
6.498587
21
2.231108
0
LINE
8
boundary
62
5
10
6.498587
20
2.231108
11
6.498587
21
2.231108
0
LINE
8
boundary
62
5
10
6.498587
20
2.231108
11
6.495682
21
2.223750
0
LINE
8
boundary
62
5
10
6.495682
20
2.223750
11
6.467601
21
2.152638
0
LINE
8
boundary
62
5
10
6.467601
20
2.152638
11
6.461603
21
2.137453
0
LINE
8
boundary
62
5
10
6.461603
20
2.137453
11
6.433164
21
2.065441
0
LINE
8
boundary
62
5
10
6.433164
20
2.065441
11
6.427097
21
2.050072
0
LINE
8
boundary
62
5
10
6.427097
20
2.050072
11
6.398329
21
1.977188
0
LINE
8
boundary
62
5
10
6.398329
20
1.977188
11
6.392316
21
1.961937
0
LINE
8
boundary
62
5
10
6.392316
20
1.961937
11
6.363803
21
1.889612
0
LINE
8
boundary
62
5
10
6.363803
20
1.889612
11
6.357770
21
1.874297
0
LINE
8
boundary
62
5
10
6.357770
20
1.874297
11
6.329157
21
1.801675
0
LINE
8
boundary
62
5
10
6.329157
20
1.801675
11
6.323117
21
1.786363
0
LINE
8
boundary
62
5
10
6.323117
20
1.786363
11
6.294458
21
1.713757
0
LINE
8
boundary
62
5
10
6.294458
20
1.713757
11
6.288396
21
1.698458
0
LINE
8
boundary
62
5
10
6.288396
20
1.698458
11
6.259632
21
1.625911
0
LINE
8
boundary
62
5
10
6.259632
20
1.625911
11
6.253551
21
1.610624
0
LINE
8
boundary
62
5
10
6.253551
20
1.610624
11
6.224729
21
1.538122
0
LINE
8
boundary
62
5
10
6.224729
20
1.538122
11
6.218671
21
1.522826
0
LINE
8
boundary
62
5
10
6.218671
20
1.522826
11
6.189993
21
1.450273
0
LINE
8
boundary
62
5
10
6.189993
20
1.450273
11
6.184015
21
1.434933
0
LINE
8
boundary
62
5
10
6.184015
20
1.434933
11
6.155722
21
1.362173
0
LINE
8
boundary
62
5
10
6.155722
20
1.362173
11
6.149817
21
1.346785
0
LINE
8
boundary
62
5
10
6.149817
20
1.346785
11
6.121782
21
1.273837
0
LINE
8
boundary
62
5
10
6.121782
20
1.273837
11
6.115809
21
1.258472
0
LINE
8
boundary
62
5
10
6.115809
20
1.258472
11
6.087324
21
1.185669
0
LINE
8
boundary
62
5
10
6.087324
20
1.185669
11
6.081062
21
1.170429
0
LINE
8
boundary
62
5
10
6.081062
20
1.170429
11
6.051156
21
1.098202
0
LINE
8
boundary
62
5
10
6.051156
20
1.098202
11
6.044682
21
1.083184
0
LINE
8
boundary
62
5
10
6.044682
20
1.083184
11
6.014132
21
1.011850
0
LINE
8
boundary
62
5
10
6.014132
20
1.011850
11
6.007920
21
0.996709
0
LINE
8
boundary
62
5
10
6.007920
20
0.996709
11
5.979313
21
0.924579
0
LINE
8
boundary
62
5
10
5.979313
20
0.924579
11
5.974286
21
0.908874
0
LINE
8
boundary
62
5
10
5.974286
20
0.908874
11
5.951956
21
0.833992
0
LINE
8
boundary
62
5
10
5.951956
20
0.833992
11
5.948983
21
0.817681
0
LINE
8
boundary
62
5
10
5.948983
20
0.817681
11
5.936732
21
0.740173
0
LINE
8
boundary
62
5
10
5.936732
20
0.740173
11
5.936432
21
0.723986
0
LINE
8
boundary
62
5
10
5.936432
20
0.723986
11
5.936622
21
0.647387
0
LINE
8
boundary
62
5
10
5.936622
20
0.647387
11
5.939828
21
0.630753
0
LINE
8
boundary
62
5
10
5.939828
20
0.630753
11
5.955999
21
0.551835
0
LINE
8
boundary
62
5
10
5.955999
20
0.551835
11
5.962768
21
0.538091
0
LINE
8
boundary
62
5
10
5.962768
20
0.538091
11
5.994489
21
0.472083
0
LINE
8
boundary
62
5
10
5.994489
20
0.472083
11
6.005225
21
0.460284
0
LINE
8
boundary
62
5
10
6.005225
20
0.460284
11
6.054317
21
0.402302
0
LINE
8
boundary
62
5
10
6.054317
20
0.402302
11
6.067790
21
0.393146
0
LINE
8
boundary
62
5
10
6.067790
20
0.393146
11
6.129228
21
0.346603
0
LINE
8
boundary
62
5
10
6.129228
20
0.346603
11
6.144223
21
0.340282
0
LINE
8
boundary
62
5
10
6.144223
20
0.340282
11
6.213124
21
0.306244
0
LINE
8
boundary
62
5
10
6.213124
20
0.306244
11
6.228756
21
0.302678
0
LINE
8
boundary
62
5
10
6.228756
20
0.302678
11
6.301457
21
0.281208
0
LINE
8
boundary
62
5
10
6.301457
20
0.281208
11
6.317566
21
0.279731
0
LINE
8
boundary
62
5
10
6.317566
20
0.279731
11
6.393178
21
0.268685
0
LINE
8
boundary
62
5
10
6.393178
20
0.268685
11
6.409651
21
0.268380
0
LINE
8
boundary
62
5
10
6.409651
20
0.268380
11
6.487446
21
0.264333
0
LINE
8
boundary
62
5
10
6.487446
20
0.264333
11
6.503976
21
0.264200
0
LINE
8
boundary
62
5
10
6.503976
20
0.264200
11
6.582329
21
0.262598
0
LINE
8
boundary
62
5
10
6.582329
20
0.262598
11
6.598768
21
0.262415
0
LINE
8
boundary
62
5
10
6.598768
20
0.262415
11
6.676793
21
0.261493
0
LINE
8
boundary
62
5
10
6.676793
20
0.261493
11
6.693185
21
0.261280
0
LINE
8
boundary
62
5
10
6.693185
20
0.261280
11
6.770954
21
0.260433
0
LINE
8
boundary
62
5
10
6.770954
20
0.260433
11
6.787372
21
0.260368
0
LINE
8
boundary
62
5
10
6.787372
20
0.260368
11
6.865220
21
0.260142
0
LINE
8
boundary
62
5
10
6.865220
20
0.260142
11
6.881048
21
0.260182
0
LINE
8
boundary
62
5
10
6.881048
20
0.260182
11
6.956089
21
0.260366
0
LINE
8
boundary
62
5
10
6.956089
20
0.260366
11
6.973211
21
0.260428
0
LINE
8
boundary
62
5
10
6.973211
20
0.260428
11
7.054393
21
0.260679
0
LINE
8
boundary
62
5
10
7.054393
20
0.260679
11
7.070857
21
0.260700
0
LINE
8
boundary
62
5
10
7.070857
20
0.260700
11
7.148934
21
0.260777
0
LINE
8
boundary
62
5
10
7.148934
20
0.260777
11
7.165391
21
0.260767
0
LINE
8
boundary
62
5
10
7.165391
20
0.260767
11
7.243441
21
0.260721
0
LINE
8
boundary
62
5
10
7.243441
20
0.260721
11
7.260434
21
0.260704
0
LINE
8
boundary
62
5
10
7.260434
20
0.260704
11
7.341025
21
0.260636
0
LINE
8
boundary
62
5
10
7.341025
20
0.260636
11
7.356939
21
0.260629
0
LINE
8
boundary
62
5
10
7.356939
20
0.260629
11
7.432406
21
0.260606
0
LINE
8
boundary
62
5
10
7.432406
20
0.260606
11
7.449341
21
0.260608
0
LINE
8
boundary
62
5
10
7.449341
20
0.260608
11
7.529645
21
0.260620
0
LINE
8
boundary
62
5
10
7.529645
20
0.260620
11
7.545629
21
0.260624
0
LINE
8
boundary
62
5
10
7.545629
20
0.260624
11
7.621429
21
0.260641
0
LINE
8
boundary
62
5
10
7.621429
20
0.260641
11
7.637888
21
0.260644
0
LINE
8
boundary
62
5
10
7.637888
20
0.260644
11
7.715939
21
0.260652
0
LINE
8
boundary
62
5
10
7.715939
20
0.260652
11
7.732398
21
0.260651
0
LINE
8
boundary
62
5
10
7.732398
20
0.260651
11
7.810447
21
0.260648
0
LINE
8
boundary
62
5
10
7.810447
20
0.260648
11
7.826905
21
0.260647
0
LINE
8
boundary
62
5
10
7.826905
20
0.260647
11
7.904951
21
0.260643
0
LINE
8
boundary
62
5
10
7.904951
20
0.260643
11
7.921410
21
0.260642
0
LINE
8
boundary
62
5
10
7.921410
20
0.260642
11
7.999457
21
0.260639
0
LINE
8
boundary
62
5
10
7.999457
20
0.260639
11
8.015916
21
0.260640
0
LINE
8
boundary
62
5
10
8.015916
20
0.260640
11
8.093964
21
0.260640
0
LINE
8
boundary
62
5
10
8.093964
20
0.260640
11
8.109964
21
0.260640
0
LINE
8
boundary
62
5
10
8.109964
20
0.260640
11
8.185839
21
0.260642
0
LINE
8
boundary
62
5
10
8.185839
20
0.260642
11
8.202756
21
0.260642
0
LINE
8
boundary
62
5
10
8.202756
20
0.260642
11
8.282979
21
0.260643
0
LINE
8
boundary
62
5
10
8.282979
20
0.260643
11
8.299437
21
0.260643
0
LINE
8
boundary
62
5
10
8.299437
20
0.260643
11
8.377486
21
0.260643
0
LINE
8
boundary
62
5
10
8.377486
20
0.260643
11
8.394388
21
0.260643
0
LINE
8
boundary
62
5
10
8.394388
20
0.260643
11
8.474541
21
0.260642
0
LINE
8
boundary
62
5
10
8.474541
20
0.260642
11
8.490555
21
0.260642
0
LINE
8
boundary
62
5
10
8.490555
20
0.260642
11
8.566499
21
0.260642
0
LINE
8
boundary
62
5
10
8.566499
20
0.260642
11
8.582958
21
0.260642
0
LINE
8
boundary
62
5
10
8.582958
20
0.260642
11
8.661006
21
0.260642
0
LINE
8
boundary
62
5
10
8.661006
20
0.260642
11
8.676812
21
0.260642
0
LINE
8
boundary
62
5
10
8.676812
20
0.260642
11
8.751763
21
0.260642
0
LINE
8
boundary
62
5
10
8.751763
20
0.260642
11
8.768874
21
0.260642
0
LINE
8
boundary
62
5
10
8.768874
20
0.260642
11
8.850021
21
0.260642
0
LINE
8
boundary
62
5
10
8.850021
20
0.260642
11
8.866554
21
0.260642
0
LINE
8
boundary
62
5
10
8.866554
20
0.260642
11
8.944956
21
0.260642
0
LINE
8
boundary
62
5
10
8.944956
20
0.260642
11
8.961340
21
0.260642
0
LINE
8
boundary
62
5
10
8.961340
20
0.260642
11
9.039034
21
0.260642
0
LINE
8
boundary
62
5
10
9.039034
20
0.260642
11
9.055493
21
0.260642
0
LINE
8
boundary
62
5
10
9.055493
20
0.260642
11
9.133542
21
0.260642
0
LINE
8
boundary
62
5
10
9.133542
20
0.260642
11
9.150000
21
0.260642
0
LINE
8
boundary
62
5
10
9.150000
20
0.260642
11
9.228048
21
0.260643
0
LINE
8
boundary
62
5
10
9.228048
20
0.260643
11
9.244507
21
0.260643
0
LINE
8
boundary
62
5
10
9.244507
20
0.260643
11
9.322555
21
0.260643
0
LINE
8
boundary
62
5
10
9.322555
20
0.260643
11
9.339013
21
0.260643
0
LINE
8
boundary
62
5
10
9.339013
20
0.260643
11
9.417062
21
0.260641
0
LINE
8
boundary
62
5
10
9.417062
20
0.260641
11
9.433521
21
0.260640
0
LINE
8
boundary
62
5
10
9.433521
20
0.260640
11
9.511569
21
0.260636
0
LINE
8
boundary
62
5
10
9.511569
20
0.260636
11
9.528028
21
0.260636
0
LINE
8
boundary
62
5
10
9.528028
20
0.260636
11
9.606077
21
0.260635
0
LINE
8
boundary
62
5
10
9.606077
20
0.260635
11
9.622536
21
0.260637
0
LINE
8
boundary
62
5
10
9.622536
20
0.260637
11
9.700584
21
0.260644
0
LINE
8
boundary
62
5
10
9.700584
20
0.260644
11
9.717042
21
0.260648
0
LINE
8
boundary
62
5
10
9.717042
20
0.260648
11
9.795090
21
0.260661
0
LINE
8
boundary
62
5
10
9.795090
20
0.260661
11
9.811548
21
0.260662
0
LINE
8
boundary
62
5
10
9.811548
20
0.260662
11
9.889594
21
0.260665
0
LINE
8
boundary
62
5
10
9.889594
20
0.260665
11
9.905966
21
0.260660
0
LINE
8
boundary
62
5
10
9.905966
20
0.260660
11
9.983601
21
0.260639
0
LINE
8
boundary
62
5
10
9.983601
20
0.260639
11
10.000147
21
0.260626
0
LINE
8
boundary
62
5
10
10.000147
20
0.260626
11
10.078612
21
0.260577
0
LINE
8
boundary
62
5
10
10.078612
20
0.260577
11
10.094824
21
0.260571
0
LINE
8
boundary
62
5
10
10.094824
20
0.260571
11
10.171707
21
0.260551
0
LINE
8
boundary
62
5
10
10.171707
20
0.260551
11
10.187834
21
0.260567
0
LINE
8
boundary
62
5
10
10.187834
20
0.260567
11
10.264314
21
0.260633
0
LINE
8
boundary
62
5
10
10.264314
20
0.260633
11
10.281349
21
0.260681
0
LINE
8
boundary
62
5
10
10.281349
20
0.260681
11
10.362132
21
0.260862
0
LINE
8
boundary
62
5
10
10.362132
20
0.260862
11
10.377947
21
0.260891
0
LINE
8
boundary
62
5
10
10.377947
20
0.260891
11
10.452936
21
0.260988
0
LINE
8
boundary
62
5
10
10.452936
20
0.260988
11
10.470032
21
0.260935
0
LINE
8
boundary
62
5
10
10.470032
20
0.260935
11
10.551087
21
0.260707
0
LINE
8
boundary
62
5
10
10.551087
20
0.260707
11
10.567554
21
0.260540
0
LINE
8
boundary
62
5
10
10.567554
20
0.260540
11
10.645635
21
0.259900
0
LINE
8
boundary
62
5
10
10.645635
20
0.259900
11
10.662114
21
0.259777
0
LINE
8
boundary
62
5
10
10.662114
20
0.259777
11
10.740289
21
0.259350
0
LINE
8
boundary
62
5
10
10.740289
20
0.259350
11
10.756741
21
0.259559
0
LINE
8
boundary
62
5
10
10.756741
20
0.259559
11
10.834823
21
0.260546
0
LINE
8
boundary
62
5
10
10.834823
20
0.260546
11
10.851239
21
0.261625
0
LINE
8
boundary
62
5
10
10.851239
20
0.261625
11
10.929071
21
0.266738
0
LINE
8
boundary
62
5
10
10.929071
20
0.266738
11
10.945276
21
0.269373
0
LINE
8
boundary
62
5
10
10.945276
20
0.269373
11
11.021977
21
0.282117
0
LINE
8
boundary
62
5
10
11.021977
20
0.282117
11
11.037712
21
0.287036
0
LINE
8
boundary
62
5
10
11.037712
20
0.287036
11
11.112086
21
0.311044
0
LINE
8
boundary
62
5
10
11.112086
20
0.311044
11
11.126712
21
0.318464
0
LINE
8
boundary
62
5
10
11.126712
20
0.318464
11
11.195740
21
0.354471
0
LINE
8
boundary
62
5
10
11.195740
20
0.354471
11
11.208985
21
0.364215
0
LINE
8
boundary
62
5
10
11.208985
20
0.364215
11
11.271356
21
0.411138
0
LINE
8
boundary
62
5
10
11.271356
20
0.411138
11
11.282820
21
0.422663
0
LINE
8
boundary
62
5
10
11.282820
20
0.422663
11
11.336611
21
0.477918
0
LINE
8
boundary
62
5
10
11.336611
20
0.477918
11
11.346414
21
0.491313
0
LINE
8
boundary
62
5
10
11.346414
20
0.491313
11
11.392151
21
0.555358
0
LINE
8
boundary
62
5
10
11.392151
20
0.555358
11
11.399683
21
0.569915
0
LINE
8
boundary
62
5
10
11.399683
20
0.569915
11
11.434449
21
0.639366
0
LINE
8
boundary
62
5
10
11.434449
20
0.639366
11
11.439754
21
0.655651
0
LINE
8
boundary
62
5
10
11.439754
20
0.655651
11
11.463620
21
0.733182
0
LINE
8
boundary
62
5
10
11.463620
20
0.733182
11
11.466204
21
0.748668
0
LINE
8
boundary
62
5
10
11.466204
20
0.748668
11
11.477345
21
0.822276
0
LINE
8
boundary
62
5
10
11.477345
20
0.822276
11
11.478105
21
0.838735
0
LINE
8
boundary
62
5
10
11.478105
20
0.838735
11
11.481198
21
0.916899
0
LINE
8
boundary
62
5
10
11.481198
20
0.916899
11
11.480522
21
0.932923
0
LINE
8
boundary
62
5
10
11.480522
20
0.932923
11
11.477872
21
1.008977
0
LINE
8
boundary
62
5
10
11.477872
20
1.008977
11
11.475959
21
1.025639
0
LINE
8
boundary
62
5
10
11.475959
20
1.025639
11
11.468753
21
1.104780
0
LINE
8
boundary
62
5
10
11.468753
20
1.104780
11
11.465585
21
1.121203
0
LINE
8
boundary
62
5
10
11.465585
20
1.121203
11
11.453691
21
1.199502
0
LINE
8
boundary
62
5
10
11.453691
20
1.199502
11
11.449380
21
1.214524
0
LINE
8
boundary
62
5
10
11.449380
20
1.214524
11
11.433124
21
1.286700
0
LINE
8
boundary
62
5
10
11.433124
20
1.286700
11
11.427212
21
1.301284
0
LINE
8
boundary
62
5
10
11.427212
20
1.301284
11
11.404792
21
1.372267
0
LINE
8
boundary
62
5
10
11.404792
20
1.372267
11
11.397438
21
1.385877
0
LINE
8
boundary
62
5
10
11.397438
20
1.385877
11
11.369387
21
1.453250
0
LINE
8
boundary
62
5
10
11.369387
20
1.453250
11
11.361082
21
1.466113
0
LINE
8
boundary
62
5
10
11.361082
20
1.466113
11
11.329187
21
1.530713
0
LINE
8
boundary
62
5
10
11.329187
20
1.530713
11
11.320324
21
1.543054
0
LINE
8
boundary
62
5
10
11.320324
20
1.543054
11
11.285732
21
1.605571
0
LINE
8
boundary
62
5
10
11.285732
20
1.605571
11
11.276260
21
1.617607
0
LINE
8
boundary
62
5
10
11.276260
20
1.617607
11
11.237946
21
1.678624
0
LINE
8
boundary
62
5
10
11.237946
20
1.678624
11
11.227445
21
1.690418
0
LINE
8
boundary
62
5
10
11.227445
20
1.690418
11
11.182880
21
1.749904
0
LINE
8
boundary
62
5
10
11.182880
20
1.749904
11
11.171202
21
1.761366
0
LINE
8
boundary
62
5
10
11.171202
20
1.761366
11
11.119294
21
1.818592
0
LINE
8
boundary
62
5
10
11.119294
20
1.818592
11
11.107013
21
1.829499
0
LINE
8
boundary
62
5
10
11.107013
20
1.829499
11
11.050759
21
1.883273
0
LINE
8
boundary
62
5
10
11.050759
20
1.883273
11
11.038159
21
1.893703
0
LINE
8
boundary
62
5
10
11.038159
20
1.893703
11
10.979415
21
1.944437
0
LINE
8
boundary
62
5
10
10.979415
20
1.944437
11
10.966444
21
1.954699
0
LINE
8
boundary
62
5
10
10.966444
20
1.954699
11
10.905371
21
2.003935
0
LINE
8
boundary
62
5
10
10.905371
20
2.003935
11
10.892575
21
2.013858
0
LINE
8
boundary
62
5
10
10.892575
20
2.013858
11
10.831915
21
2.060924
0
LINE
8
boundary
62
5
10
10.831915
20
2.060924
11
10.818871
21
2.071116
0
LINE
8
boundary
62
5
10
10.818871
20
2.071116
11
10.756742
21
2.119078
0
LINE
8
boundary
62
5
10
10.756742
20
2.119078
11
10.744198
21
2.129189
0
LINE
8
boundary
62
5
10
10.744198
20
2.129189
11
10.684255
21
2.176551
0
LINE
8
boundary
62
5
10
10.684255
20
2.176551
11
10.671426
21
2.187321
0
LINE
8
boundary
62
5
10
10.671426
20
2.187321
11
10.609918
21
2.237572
0
LINE
8
boundary
62
5
10
10.609918
20
2.237572
11
10.597858
21
2.248168
0
LINE
8
boundary
62
5
10
10.597858
20
2.248168
11
10.539830
21
2.297427
0
LINE
8
boundary
62
5
10
10.539830
20
2.297427
11
10.527513
21
2.308810
0
LINE
8
boundary
62
5
10
10.527513
20
2.308810
11
10.468019
21
2.361558
0
LINE
8
boundary
62
5
10
10.468019
20
2.361558
11
10.456305
21
2.373030
0
LINE
8
boundary
62
5
10
10.456305
20
2.373030
11
10.399491
21
2.426066
0
LINE
8
boundary
62
5
10
10.399491
20
2.426066
11
10.388146
21
2.437891
0
LINE
8
boundary
62
5
10
10.388146
20
2.437891
11
10.332907
21
2.492499
0
LINE
8
boundary
62
5
10
10.332907
20
2.492499
11
10.321962
21
2.504689
0
LINE
8
boundary
62
5
10
10.321962
20
2.504689
11
10.268477
21
2.560985
0
LINE
8
boundary
62
5
10
10.268477
20
2.560985
11
10.257967
21
2.573538
0
LINE
8
boundary
62
5
10
10.257967
20
2.573538
11
10.206435
21
2.631553
0
LINE
8
boundary
62
5
10
10.206435
20
2.631553
11
10.196391
21
2.644477
0
LINE
8
boundary
62
5
10
10.196391
20
2.644477
11
10.146987
21
2.704282
0
LINE
8
boundary
62
5
10
10.146987
20
2.704282
11
10.137442
21
2.717581
0
LINE
8
boundary
62
5
10
10.137442
20
2.717581
11
10.090350
21
2.779234
0
LINE
8
boundary
62
5
10
10.090350
20
2.779234
11
10.081328
21
2.792894
0
LINE
8
boundary
62
5
10
10.081328
20
2.792894
11
10.036668
21
2.856336
0
LINE
8
boundary
62
5
10
10.036668
20
2.856336
11
10.028186
21
2.870336
0
LINE
8
boundary
62
5
10
10.028186
20
2.870336
11
9.986034
21
2.935471
0
LINE
8
boundary
62
5
10
9.986034
20
2.935471
11
9.977995
21
2.950002
0
LINE
8
boundary
62
5
10
9.977995
20
2.950002
11
9.937868
21
3.017709
0
LINE
8
boundary
62
5
10
9.937868
20
3.017709
11
9.930624
21
3.032122
0
LINE
8
boundary
62
5
10
9.930624
20
3.032122
11
9.894273
21
3.099375
0
LINE
8
boundary
62
5
10
9.894273
20
3.099375
11
9.887513
21
3.114282
0
LINE
8
boundary
62
5
10
9.887513
20
3.114282
11
9.853381
21
3.183943
0
LINE
8
boundary
62
5
10
9.853381
20
3.183943
11
9.847246
21
3.199117
0
LINE
8
boundary
62
5
10
9.847246
20
3.199117
11
9.816020
21
3.270123
0
LINE
8
boundary
62
5
10
9.816020
20
3.270123
11
9.810539
21
3.285543
0
LINE
8
boundary
62
5
10
9.810539
20
3.285543
11
9.782349
21
3.357795
0
LINE
8
boundary
62
5
10
9.782349
20
3.357795
11
9.777755
21
3.372708
0
LINE
8
boundary
62
5
10
9.777755
20
3.372708
11
9.753805
21
3.442674
0
LINE
8
boundary
62
5
10
9.753805
20
3.442674
11
9.749493
21
3.459281
0
LINE
8
boundary
62
5
10
9.749493
20
3.459281
11
9.726576
21
3.537295
0
LINE
8
boundary
62
5
10
9.726576
20
3.537295
11
9.723223
21
3.553253
0
LINE
8
boundary
62
5
10
9.723223
20
3.553253
11
9.704894
21
3.628322
0
LINE
8
boundary
62
5
10
9.704894
20
3.628322
11
9.702179
21
3.645221
0
LINE
8
boundary
62
5
10
9.702179
20
3.645221
11
9.686679
21
3.724832
0
LINE
8
boundary
62
5
10
9.686679
20
3.724832
11
9.684924
21
3.740314
0
LINE
8
boundary
62
5
10
9.684924
20
3.740314
11
9.674182
21
3.813358
0
LINE
8
boundary
62
5
10
9.674182
20
3.813358
11
9.673073
21
3.829670
0
LINE
8
boundary
62
5
10
9.673073
20
3.829670
11
9.665278
21
3.906753
0
LINE
8
boundary
62
5
10
9.665278
20
3.906753
11
9.664915
21
3.923100
0
LINE
8
boundary
62
5
10
9.664915
20
3.923100
11
9.660692
21
4.000471
0
LINE
8
boundary
62
5
10
9.660692
20
4.000471
11
9.661060
21
4.016828
0
LINE
8
boundary
62
5
10
9.661060
20
4.016828
11
9.660387
21
4.094357
0
LINE
8
boundary
62
5
10
9.660387
20
4.094357
11
9.661463
21
4.110694
0
LINE
8
boundary
62
5
10
9.661463
20
4.110694
11
9.664266
21
4.188235
0
LINE
8
boundary
62
5
10
9.664266
20
4.188235
11
9.666013
21
4.204522
0
LINE
8
boundary
62
5
10
9.666013
20
4.204522
11
9.672134
21
4.281918
0
LINE
8
boundary
62
5
10
9.672134
20
4.281918
11
9.674512
21
4.298134
0
LINE
8
boundary
62
5
10
9.674512
20
4.298134
11
9.683780
21
4.375264
0
LINE
8
boundary
62
5
10
9.683780
20
4.375264
11
9.686660
21
4.390969
0
LINE
8
boundary
62
5
10
9.686660
20
4.390969
11
9.698524
21
4.465717
0
LINE
8
boundary
62
5
10
9.698524
20
4.465717
11
9.702116
21
4.482175
0
LINE
8
boundary
62
5
10
9.702116
20
4.482175
11
9.717432
21
4.560551
0
LINE
8
boundary
62
5
10
9.717432
20
4.560551
11
9.721437
21
4.576473
0
LINE
8
boundary
62
5
10
9.721437
20
4.576473
11
9.738920
21
4.652322
0
LINE
8
boundary
62
5
10
9.738920
20
4.652322
11
9.743556
21
4.668714
0
LINE
8
boundary
62
5
10
9.743556
20
4.668714
11
9.764143
21
4.746812
0
LINE
8
boundary
62
5
10
9.764143
20
4.746812
11
9.768849
21
4.761919
0
LINE
8
boundary
62
5
10
9.768849
20
4.761919
11
9.790001
21
4.833898
0
LINE
8
boundary
62
5
10
9.790001
20
4.833898
11
9.795415
21
4.849893
0
LINE
8
boundary
62
5
10
9.795415
20
4.849893
11
9.819964
21
4.926107
0
LINE
8
boundary
62
5
10
9.819964
20
4.926107
11
9.825477
21
4.941238
0
LINE
8
boundary
62
5
10
9.825477
20
4.941238
11
9.850637
21
5.013331
0
LINE
8
boundary
62
5
10
9.850637
20
5.013331
11
9.856553
21
5.028547
0
LINE
8
boundary
62
5
10
9.856553
20
5.028547
11
9.883687
21
5.101051
0
LINE
8
boundary
62
5
10
9.883687
20
5.101051
11
9.889980
21
5.116296
0
LINE
8
boundary
62
5
10
9.889980
20
5.116296
11
9.918954
21
5.188937
0
LINE
8
boundary
62
5
10
9.918954
20
5.188937
11
9.925511
21
5.203964
0
LINE
8
boundary
62
5
10
9.925511
20
5.203964
11
9.955782
21
5.275573
0
LINE
8
boundary
62
5
10
9.955782
20
5.275573
11
9.962650
21
5.290516
0
LINE
8
boundary
62
5
10
9.962650
20
5.290516
11
9.994432
21
5.361730
0
LINE
8
boundary
62
5
10
9.994432
20
5.361730
11
10.001587
21
5.376538
0
LINE
8
boundary
62
5
10
10.001587
20
5.376538
11
10.034758
21
5.447118
0
LINE
8
boundary
62
5
10
10.034758
20
5.447118
11
10.042197
21
5.461787
0
LINE
8
boundary
62
5
10
10.042197
20
5.461787
11
10.076732
21
5.531711
0
LINE
8
boundary
62
5
10
10.076732
20
5.531711
11
10.084454
21
5.546233
0
LINE
8
boundary
62
5
10
10.084454
20
5.546233
11
10.120344
21
5.615474
0
LINE
8
boundary
62
5
10
10.120344
20
5.615474
11
10.128352
21
5.629840
0
LINE
8
boundary
62
5
10
10.128352
20
5.629840
11
10.165598
21
5.698361
0
LINE
8
boundary
62
5
10
10.165598
20
5.698361
11
10.173895
21
5.712561
0
LINE
8
boundary
62
5
10
10.173895
20
5.712561
11
10.212508
21
5.780314
0
LINE
8
boundary
62
5
10
10.212508
20
5.780314
11
10.221101
21
5.794336
0
LINE
8
boundary
62
5
10
10.221101
20
5.794336
11
10.261110
21
5.861269
0
LINE
8
boundary
62
5
10
10.261110
20
5.861269
11
10.269997
21
5.875106
0
LINE
8
boundary
62
5
10
10.269997
20
5.875106
11
10.311404
21
5.941184
0
LINE
8
boundary
62
5
10
10.311404
20
5.941184
11
10.320585
21
5.954853
0
LINE
8
boundary
62
5
10
10.320585
20
5.954853
11
10.363407
21
6.020140
0
LINE
8
boundary
62
5
10
10.363407
20
6.020140
11
10.372835
21
6.033595
0
LINE
8
boundary
62
5
10
10.372835
20
6.033595
11
10.416865
21
6.097859
0
LINE
8
boundary
62
5
10
10.416865
20
6.097859
11
10.426555
21
6.111150
0
LINE
8
boundary
62
5
10
10.426555
20
6.111150
11
10.471883
21
6.174622
0
LINE
8
boundary
62
5
10
10.471883
20
6.174622
11
10.481809
21
6.187739
0
LINE
8
boundary
62
5
10
10.481809
20
6.187739
11
10.528318
21
6.250361
0
LINE
8
boundary
62
5
10
10.528318
20
6.250361
11
10.538458
21
6.263317
0
LINE
8
boundary
62
5
10
10.538458
20
6.263317
11
10.586050
21
6.325135
0
LINE
8
boundary
62
5
10
10.586050
20
6.325135
11
10.596155
21
6.337673
0
LINE
8
boundary
62
5
10
10.596155
20
6.337673
11
10.643655
21
6.397461
0
LINE
8
boundary
62
5
10
10.643655
20
6.397461
11
10.654655
21
6.410764
0
LINE
8
boundary
62
5
10
10.654655
20
6.410764
11
10.706438
21
6.474153
0
LINE
8
boundary
62
5
10
10.706438
20
6.474153
11
10.716763
21
6.486377
0
LINE
8
boundary
62
5
10
10.716763
20
6.486377
11
10.765439
21
6.544582
0
LINE
8
boundary
62
5
10
10.765439
20
6.544582
11
10.776149
21
6.557077
0
LINE
8
boundary
62
5
10
10.776149
20
6.557077
11
10.826724
21
6.616516
0
LINE
8
boundary
62
5
10
10.826724
20
6.616516
11
10.837472
21
6.628979
0
LINE
8
boundary
62
5
10
10.837472
20
6.628979
11
10.888332
21
6.688174
0
LINE
8
boundary
62
5
10
10.888332
20
6.688174
11
10.899058
21
6.700657
0
LINE
8
boundary
62
5
10
10.899058
20
6.700657
11
10.949939
21
6.759839
0
LINE
8
boundary
62
5
10
10.949939
20
6.759839
11
10.960575
21
6.772399
0
LINE
8
boundary
62
5
10
10.960575
20
6.772399
11
11.011174
21
6.831823
0
LINE
8
boundary
62
5
10
11.011174
20
6.831823
11
11.021651
21
6.844512
0
LINE
8
boundary
62
5
10
11.021651
20
6.844512
11
11.071657
21
6.904419
0
LINE
8
boundary
62
5
10
11.071657
20
6.904419
11
11.081898
21
6.917293
0
LINE
8
boundary
62
5
10
11.081898
20
6.917293
11
11.130958
21
6.977947
0
LINE
8
boundary
62
5
10
11.130958
20
6.977947
11
11.140862
21
6.991077
0
LINE
8
boundary
62
5
10
11.140862
20
6.991077
11
11.188501
21
7.052818
0
LINE
8
boundary
62
5
10
11.188501
20
7.052818
11
11.197916
21
7.066287
0
LINE
8
boundary
62
5
10
11.197916
20
7.066287
11
11.243467
21
7.129506
0
LINE
8
boundary
62
5
10
11.243467
20
7.129506
11
11.252214
21
7.143377
0
LINE
8
boundary
62
5
10
11.252214
20
7.143377
11
11.294880
21
7.208359
0
LINE
8
boundary
62
5
10
11.294880
20
7.208359
11
11.302824
21
7.222769
0
LINE
8
boundary
62
5
10
11.302824
20
7.222769
11
11.342019
21
7.290181
0
LINE
8
boundary
62
5
10
11.342019
20
7.290181
11
11.348659
21
7.304431
0
LINE
8
boundary
62
5
10
11.348659
20
7.304431
11
11.381979
21
7.371084
0
LINE
8
boundary
62
5
10
11.381979
20
7.371084
11
11.387885
21
7.387008
0
LINE
8
boundary
62
5
10
11.387885
20
7.387008
11
11.418337
21
7.461580
0
LINE
8
boundary
62
5
10
11.418337
20
7.461580
11
11.422509
21
7.477282
0
LINE
8
boundary
62
5
10
11.422509
20
7.477282
11
11.444999
21
7.550954
0
LINE
8
boundary
62
5
10
11.444999
20
7.550954
11
11.447785
21
7.567024
0
LINE
8
boundary
62
5
10
11.447785
20
7.567024
11
11.463622
21
7.642628
0
LINE
8
boundary
62
5
10
11.463622
20
7.642628
11
11.465286
21
7.659513
0
LINE
8
boundary
62
5
10
11.465286
20
7.659513
11
11.475297
21
7.739216
0
LINE
8
boundary
62
5
10
11.475297
20
7.739216
11
11.476133
21
7.755186
0
LINE
8
boundary
62
5
10
11.476133
20
7.755186
11
11.481394
21
7.830796
0
LINE
8
boundary
62
5
10
11.481394
20
7.830796
11
11.481788
21
7.847648
0
LINE
8
boundary
62
5
10
11.481788
20
7.847648
11
11.484414
21
7.927565
0
LINE
8
boundary
62
5
10
11.484414
20
7.927565
11
11.484512
21
7.943569
0
LINE
8
boundary
62
5
10
11.484512
20
7.943569
11
11.485280
21
8.019480
0
LINE
8
boundary
62
5
10
11.485280
20
8.019480
11
11.485260
21
8.035924
0
LINE
8
boundary
62
5
10
11.485260
20
8.035924
11
11.485178
21
8.113904
0
LINE
8
boundary
62
5
10
11.485178
20
8.113904
11
11.485132
21
8.130367
0
LINE
8
boundary
62
5
10
11.485132
20
8.130367
11
11.484808
21
8.208430
0
LINE
8
boundary
62
5
10
11.484808
20
8.208430
11
11.484786
21
8.224901
0
LINE
8
boundary
62
5
10
11.484786
20
8.224901
11
11.484643
21
8.303008
0
LINE
8
boundary
62
5
10
11.484643
20
8.303008
11
11.484595
21
8.319457
0
LINE
8
boundary
62
5
10
11.484595
20
8.319457
11
11.484447
21
8.397474
0
LINE
8
boundary
62
5
10
11.484447
20
8.397474
11
11.484378
21
8.413917
0
LINE
8
boundary
62
5
10
11.484378
20
8.413917
11
11.484136
21
8.491903
0
LINE
8
boundary
62
5
10
11.484136
20
8.491903
11
11.484127
21
8.507874
0
LINE
8
boundary
62
5
10
11.484127
20
8.507874
11
11.484004
21
8.583601
0
LINE
8
boundary
62
5
10
11.484004
20
8.583601
11
11.484211
21
8.600602
0
LINE
8
boundary
62
5
10
11.484211
20
8.600602
11
11.484871
21
8.681178
0
LINE
8
boundary
62
5
10
11.484871
20
8.681178
11
11.485126
21
8.697694
0
LINE
8
boundary
62
5
10
11.485126
20
8.697694
11
11.486152
21
8.775983
0
LINE
8
boundary
62
5
10
11.486152
20
8.775983
11
11.485943
21
8.792813
0
LINE
8
boundary
62
5
10
11.485943
20
8.792813
11
11.485586
21
8.872686
0
LINE
8
boundary
62
5
10
11.485586
20
8.872686
11
11.484212
21
8.888530
0
LINE
8
boundary
62
5
10
11.484212
20
8.888530
11
11.479352
21
8.963850
0
LINE
8
boundary
62
5
10
11.479352
20
8.963850
11
11.476126
21
8.979813
0
LINE
8
boundary
62
5
10
11.476126
20
8.979813
11
11.463333
21
9.055909
0
LINE
8
boundary
62
5
10
11.463333
20
9.055909
11
11.458189
21
9.070777
0
LINE
8
boundary
62
5
10
11.458189
20
9.070777
11
11.436440
21
9.142030
0
LINE
8
boundary
62
5
10
11.436440
20
9.142030
11
11.428549
21
9.157101
0
LINE
8
boundary
62
5
10
11.428549
20
9.157101
11
11.393873
21
9.229849
0
LINE
8
boundary
62
5
10
11.393873
20
9.229849
11
11.384125
21
9.242968
0
LINE
8
annotation
62
1
10
10.316046
20
2.139970
11
10.316046
21
2.434746
0
LINE
8
annotation
62
1
10
10.316046
20
2.434746
11
10.250513
21
2.369195
0
LINE
8
annotation
62
1
10
7.286123
20
2.327672
11
7.286123
21
2.547044
0
LINE
8
annotation
62
1
10
7.286123
20
2.547044
11
7.237354
21
2.498261
0
LINE
8
annotation
62
1
10
11.395762
20
7.517589
11
11.299308
21
7.517589
0
LINE
8
annotation
62
1
10
11.299308
20
7.517589
11
11.388435
21
7.661072
0
LINE
8
annotation
62
1
10
11.388435
20
7.661072
11
11.388435
21
7.661072
0
LINE
8
annotation
62
1
10
11.388435
20
7.661072
11
11.388541
21
7.661204
0
LINE
8
annotation
62
1
10
11.388541
20
7.661204
11
11.388643
21
7.661337
0
LINE
8
annotation
62
1
10
11.388643
20
7.661337
11
11.388742
21
7.661472
0
LINE
8
annotation
62
1
10
11.388742
20
7.661472
11
11.388837
21
7.661611
0
LINE
8
annotation
62
1
10
11.388837
20
7.661611
11
11.388930
21
7.661754
0
LINE
8
annotation
62
1
10
11.388930
20
7.661754
11
11.389022
21
7.661903
0
LINE
8
annotation
62
1
10
11.389022
20
7.661903
11
11.389112
21
7.662058
0
LINE
8
annotation
62
1
10
11.389112
20
7.662058
11
11.389202
21
7.662221
0
LINE
8
annotation
62
1
10
11.389202
20
7.662221
11
11.389293
21
7.662393
0
LINE
8
annotation
62
1
10
11.389293
20
7.662393
11
11.389293
21
7.662393
0
LINE
8
annotation
62
1
10
11.389293
20
7.662393
11
11.392973
21
7.670295
0
LINE
8
annotation
62
1
10
11.392973
20
7.670295
11
11.395123
21
7.678485
0
LINE
8
annotation
62
1
10
11.395123
20
7.678485
11
11.395795
21
7.686780
0
LINE
8
annotation
62
1
10
11.395795
20
7.686780
11
11.395042
21
7.694993
0
LINE
8
annotation
62
1
10
11.395042
20
7.694993
11
11.392918
21
7.702940
0
LINE
8
annotation
62
1
10
11.392918
20
7.702940
11
11.389473
21
7.710436
0
LINE
8
annotation
62
1
10
11.389473
20
7.710436
11
11.384762
21
7.717296
0
LINE
8
annotation
62
1
10
11.384762
20
7.717296
11
11.378837
21
7.723335
0
LINE
8
annotation
62
1
10
11.378837
20
7.723335
11
11.371751
21
7.728367
0
LINE
8
annotation
62
1
10
11.371751
20
7.728367
11
11.371751
21
7.728367
0
LINE
8
annotation
62
1
10
11.371751
20
7.728367
11
11.363827
21
7.731995
0
LINE
8
annotation
62
1
10
11.363827
20
7.731995
11
11.355624
21
7.734111
0
LINE
8
annotation
62
1
10
11.355624
20
7.734111
11
11.347325
21
7.734764
0
LINE
8
annotation
62
1
10
11.347325
20
7.734764
11
11.339113
21
7.734002
0
LINE
8
annotation
62
1
10
11.339113
20
7.734002
11
11.331171
21
7.731871
0
LINE
8
annotation
62
1
10
11.331171
20
7.731871
11
11.323683
21
7.728420
0
LINE
8
annotation
62
1
10
11.323683
20
7.728420
11
11.316833
21
7.723696
0
LINE
8
annotation
62
1
10
11.316833
20
7.723696
11
11.310803
21
7.717747
0
LINE
8
annotation
62
1
10
11.310803
20
7.717747
11
11.305777
21
7.710620
0
LINE
8
annotation
62
1
10
11.305777
20
7.710620
11
11.299444
21
7.698472
0
LINE
8
annotation
62
1
10
9.317129
20
7.526138
11
9.228268
21
7.526138
0
LINE
8
annotation
62
1
10
9.228268
20
7.526138
11
9.310378
21
7.658325
0
LINE
8
annotation
62
1
10
9.310378
20
7.658325
11
9.310378
21
7.658325
0
LINE
8
annotation
62
1
10
9.310378
20
7.658325
11
9.310477
21
7.658447
0
LINE
8
annotation
62
1
10
9.310477
20
7.658447
11
9.310571
21
7.658569
0
LINE
8
annotation
62
1
10
9.310571
20
7.658569
11
9.310661
21
7.658694
0
LINE
8
annotation
62
1
10
9.310661
20
7.658694
11
9.310749
21
7.658822
0
LINE
8
annotation
62
1
10
9.310749
20
7.658822
11
9.310835
21
7.658953
0
LINE
8
annotation
62
1
10
9.310835
20
7.658953
11
9.310919
21
7.659090
0
LINE
8
annotation
62
1
10
9.310919
20
7.659090
11
9.311003
21
7.659234
0
LINE
8
annotation
62
1
10
9.311003
20
7.659234
11
9.311086
21
7.659384
0
LINE
8
annotation
62
1
10
9.311086
20
7.659384
11
9.311169
21
7.659543
0
LINE
8
annotation
62
1
10
9.311169
20
7.659543
11
9.311169
21
7.659543
0
LINE
8
annotation
62
1
10
9.311169
20
7.659543
11
9.314559
21
7.666822
0
LINE
8
annotation
62
1
10
9.314559
20
7.666822
11
9.316540
21
7.674367
0
LINE
8
annotation
62
1
10
9.316540
20
7.674367
11
9.317159
21
7.682009
0
LINE
8
annotation
62
1
10
9.317159
20
7.682009
11
9.316466
21
7.689576
0
LINE
8
annotation
62
1
10
9.316466
20
7.689576
11
9.314508
21
7.696897
0
LINE
8
annotation
62
1
10
9.314508
20
7.696897
11
9.311335
21
7.703803
0
LINE
8
annotation
62
1
10
9.311335
20
7.703803
11
9.306995
21
7.710123
0
LINE
8
annotation
62
1
10
9.306995
20
7.710123
11
9.301536
21
7.715686
0
LINE
8
annotation
62
1
10
9.301536
20
7.715686
11
9.295008
21
7.720322
0
LINE
8
annotation
62
1
10
9.295008
20
7.720322
11
9.295008
21
7.720322
0
LINE
8
annotation
62
1
10
9.295008
20
7.720322
11
9.287708
21
7.723664
0
LINE
8
annotation
62
1
10
9.287708
20
7.723664
11
9.280151
21
7.725615
0
LINE
8
annotation
62
1
10
9.280151
20
7.725615
11
9.272505
21
7.726216
0
LINE
8
annotation
62
1
10
9.272505
20
7.726216
11
9.264939
21
7.725514
0
LINE
8
annotation
62
1
10
9.264939
20
7.725514
11
9.257623
21
7.723551
0
LINE
8
annotation
62
1
10
9.257623
20
7.723551
11
9.250725
21
7.720372
0
LINE
8
annotation
62
1
10
9.250725
20
7.720372
11
9.244413
21
7.716020
0
LINE
8
annotation
62
1
10
9.244413
20
7.716020
11
9.238858
21
7.710539
0
LINE
8
annotation
62
1
10
9.238858
20
7.710539
11
9.234228
21
7.703973
0
LINE
8
annotation
62
1
10
9.234228
20
7.703973
11
9.228393
21
7.692781
0
LINE
8
annotation
62
1
10
8.363326
20
4.637076
11
8.243826
21
4.464230
0
LINE
8
annotation
62
1
10
8.243826
20
4.464230
11
8.124304
21
4.637076
0
LINE
8
annotation
62
1
10
8.243826
20
4.478140
11
8.243826
21
4.278734
0
LINE
8
annotation
62
1
10
8.693663
20
4.457905
11
8.497741
21
4.457905
0
LINE
8
annotation
62
1
10
8.827999
20
4.278757
11
8.907568
21
4.278757
0
LINE
8
annotation
62
1
10
8.907568
20
4.278757
11
8.907568
21
4.278757
0
LINE
8
annotation
62
1
10
8.907568
20
4.278757
11
8.921879
21
4.280040
0
LINE
8
annotation
62
1
10
8.921879
20
4.280040
11
8.935345
21
4.283740
0
LINE
8
annotation
62
1
10
8.935345
20
4.283740
11
8.947742
21
4.289629
0
LINE
8
annotation
62
1
10
8.947742
20
4.289629
11
8.958846
21
4.297480
0
LINE
8
annotation
62
1
10
8.958846
20
4.297480
11
8.968434
21
4.307065
0
LINE
8
annotation
62
1
10
8.968434
20
4.307065
11
8.976281
21
4.318159
0
LINE
8
annotation
62
1
10
8.976281
20
4.318159
11
8.982163
21
4.330532
0
LINE
8
annotation
62
1
10
8.982163
20
4.330532
11
8.985856
21
4.343960
0
LINE
8
annotation
62
1
10
8.985856
20
4.343960
11
8.987137
21
4.358213
0
LINE
8
annotation
62
1
10
8.987137
20
4.358213
11
8.987137
21
4.398054
0
LINE
8
annotation
62
1
10
8.987137
20
4.398054
11
8.987137
21
4.398054
0
LINE
8
annotation
62
1
10
8.987137
20
4.398054
11
8.985856
21
4.412302
0
LINE
8
annotation
62
1
10
8.985856
20
4.412302
11
8.982163
21
4.425726
0
LINE
8
annotation
62
1
10
8.982163
20
4.425726
11
8.976281
21
4.438099
0
LINE
8
annotation
62
1
10
8.976281
20
4.438099
11
8.968434
21
4.449193
0
LINE
8
annotation
62
1
10
8.968434
20
4.449193
11
8.958846
21
4.458780
0
LINE
8
annotation
62
1
10
8.958846
20
4.458780
11
8.947742
21
4.466633
0
LINE
8
annotation
62
1
10
8.947742
20
4.466633
11
8.935345
21
4.472524
0
LINE
8
annotation
62
1
10
8.935345
20
4.472524
11
8.921879
21
4.476226
0
LINE
8
annotation
62
1
10
8.921879
20
4.476226
11
8.907568
21
4.477511
0
LINE
8
annotation
62
1
10
8.907568
20
4.477511
11
8.867728
21
4.477511
0
LINE
8
annotation
62
1
10
8.867728
20
4.477511
11
8.907568
21
4.477511
0
LINE
8
annotation
62
1
10
8.907568
20
4.477511
11
8.907568
21
4.477511
0
LINE
8
annotation
62
1
10
8.907568
20
4.477511
11
8.921879
21
4.478795
0
LINE
8
annotation
62
1
10
8.921879
20
4.478795
11
8.935345
21
4.482499
0
LINE
8
annotation
62
1
10
8.935345
20
4.482499
11
8.947742
21
4.488397
0
LINE
8
annotation
62
1
10
8.947742
20
4.488397
11
8.958846
21
4.496261
0
LINE
8
annotation
62
1
10
8.958846
20
4.496261
11
8.968434
21
4.505867
0
LINE
8
annotation
62
1
10
8.968434
20
4.505867
11
8.976281
21
4.516989
0
LINE
8
annotation
62
1
10
8.976281
20
4.516989
11
8.982163
21
4.529401
0
LINE
8
annotation
62
1
10
8.982163
20
4.529401
11
8.985856
21
4.542878
0
LINE
8
annotation
62
1
10
8.985856
20
4.542878
11
8.987137
21
4.557192
0
LINE
8
annotation
62
1
10
8.987137
20
4.557192
11
8.987137
21
4.557192
0
LINE
8
annotation
62
1
10
8.987137
20
4.557192
11
8.985856
21
4.571440
0
LINE
8
annotation
62
1
10
8.985856
20
4.571440
11
8.982163
21
4.584864
0
LINE
8
annotation
62
1
10
8.982163
20
4.584864
11
8.976281
21
4.597237
0
LINE
8
annotation
62
1
10
8.976281
20
4.597237
11
8.968434
21
4.608331
0
LINE
8
annotation
62
1
10
8.968434
20
4.608331
11
8.958846
21
4.617918
0
LINE
8
annotation
62
1
10
8.958846
20
4.617918
11
8.947742
21
4.625771
0
LINE
8
annotation
62
1
10
8.947742
20
4.625771
11
8.935345
21
4.631663
0
LINE
8
annotation
62
1
10
8.935345
20
4.631663
11
8.921879
21
4.635364
0
LINE
8
annotation
62
1
10
8.921879
20
4.635364
11
8.907568
21
4.636649
0
LINE
8
annotation
62
1
10
8.907568
20
4.636649
11
8.827999
21
4.636649
0
LINE
8
frame
62
5
10
0.000000
20
0.000000
11
12.000000
21
0.000000
0
LINE
8
frame
62
5
10
12.000000
20
0.000000
11
12.000000
21
12.000000
0
LINE
8
frame
62
5
10
12.000000
20
12.000000
11
0.000000
21
12.000000
0
LINE
8
frame
62
5
10
0.000000
20
12.000000
11
0.000000
21
0.000000
0
ENDSEC
0
EOF
