0
SECTION
2
HEADER
9
$ACADVER
1
AC1009
0
ENDSEC
0
SECTION
2
TABLES
0
TABLE
2
VPORT
70
1
0
VPORT
2
ACTIVE
70
0
10
0.0
20
0.0
11
0.0
21
0.0
12
0.0
22
0.0
13
0.0
23
0.0
14
0.0
24
0.0
15
0.0
25
0.0
16
0.0
26
0.0
36
0.0
17
0.0
27
0.0
37
0.0
40
0.0
41
0.0
42
0.0
43
0.0
44
0.0
50
0.0
51
0.0
71
0
72
1000
73
1
74
3
75
0
76
0
77
0
78
0
0
ENDTAB
0
ENDSEC
0
SECTION
2
ENTITIES
0
LINE
8
hole
62
5
10
4.698187
20
10.278661
11
4.713932
21
10.272908
0
LINE
8
hole
62
5
10
4.713932
20
10.272908
11
4.729758
21
10.267125
0
LINE
8
hole
62
5
10
4.729758
20
10.267125
11
4.744437
21
10.258833
0
LINE
8
hole
62
5
10
4.744437
20
10.258833
11
4.759191
21
10.250497
0
LINE
8
hole
62
5
10
4.759191
20
10.250497
11
4.771960
21
10.239308
0
LINE
8
hole
62
5
10
4.771960
20
10.239308
11
4.784795
21
10.228062
0
LINE
8
hole
62
5
10
4.784795
20
10.228062
11
4.794604
21
10.214568
0
LINE
8
hole
62
5
10
4.794604
20
10.214568
11
4.804463
21
10.201004
0
LINE
8
hole
62
5
10
4.804463
20
10.201004
11
4.811076
21
10.185520
0
LINE
8
hole
62
5
10
4.811076
20
10.185520
11
4.817723
21
10.169956
0
LINE
8
hole
62
5
10
4.817723
20
10.169956
11
4.820678
21
10.153490
0
LINE
8
hole
62
5
10
4.820678
20
10.153490
11
4.823648
21
10.136939
0
LINE
8
hole
62
5
10
4.823648
20
10.136939
11
4.824038
21
10.120067
0
LINE
8
hole
62
5
10
4.824038
20
10.120067
11
4.824430
21
10.103108
0
LINE
8
hole
62
5
10
4.824430
20
10.103108
11
4.824242
21
10.086054
0
LINE
8
hole
62
5
10
4.824242
20
10.086054
11
4.824053
21
10.068910
0
LINE
8
hole
62
5
10
4.824053
20
10.068910
11
4.824094
21
10.052199
0
LINE
8
hole
62
5
10
4.824094
20
10.052199
11
4.824135
21
10.035402
0
LINE
8
hole
62
5
10
4.824135
20
10.035402
11
4.824201
21
10.018564
0
LINE
8
hole
62
5
10
4.824201
20
10.018564
11
4.824267
21
10.001639
0
LINE
8
hole
62
5
10
4.824267
20
10.001639
11
4.824262
21
9.984778
0
LINE
8
hole
62
5
10
4.824262
20
9.984778
11
4.824258
21
9.967829
0
LINE
8
hole
62
5
10
4.824258
20
9.967829
11
4.824241
21
9.950961
0
LINE
8
hole
62
5
10
4.824241
20
9.950961
11
4.824223
21
9.934005
0
LINE
8
hole
62
5
10
4.824223
20
9.934005
11
4.824223
21
9.917152
0
LINE
8
hole
62
5
10
4.824223
20
9.917152
11
4.824224
21
9.900211
0
LINE
8
hole
62
5
10
4.824224
20
9.900211
11
4.824229
21
9.883361
0
LINE
8
hole
62
5
10
4.824229
20
9.883361
11
4.824234
21
9.866423
0
LINE
8
hole
62
5
10
4.824234
20
9.866423
11
4.824234
21
9.849565
0
LINE
8
hole
62
5
10
4.824234
20
9.849565
11
4.824235
21
9.832618
0
LINE
8
hole
62
5
10
4.824235
20
9.832618
11
4.824233
21
9.815759
0
LINE
8
hole
62
5
10
4.824233
20
9.815759
11
4.824232
21
9.798811
0
LINE
8
hole
62
5
10
4.824232
20
9.798811
11
4.824232
21
9.781954
0
LINE
8
hole
62
5
10
4.824232
20
9.781954
11
4.824232
21
9.765009
0
LINE
8
hole
62
5
10
4.824232
20
9.765009
11
4.824232
21
9.748199
0
LINE
8
hole
62
5
10
4.824232
20
9.748199
11
4.824232
21
9.731300
0
LINE
8
hole
62
5
10
4.824232
20
9.731300
11
4.824232
21
9.714396
0
LINE
8
hole
62
5
10
4.824232
20
9.714396
11
4.824232
21
9.697405
0
LINE
8
hole
62
5
10
4.824232
20
9.697405
11
4.824232
21
9.680941
0
LINE
8
hole
62
5
10
4.824232
20
9.680941
11
4.824232
21
9.664391
0
LINE
8
hole
62
5
10
4.824232
20
9.664391
11
4.824232
21
9.647140
0
LINE
8
hole
62
5
10
4.824232
20
9.647140
11
4.824232
21
9.629800
0
LINE
8
hole
62
5
10
4.824232
20
9.629800
11
4.824232
21
9.612942
0
LINE
8
hole
62
5
10
4.824232
20
9.612942
11
4.824232
21
9.595997
0
LINE
8
hole
62
5
10
4.824232
20
9.595997
11
4.824232
21
9.579139
0
LINE
8
hole
62
5
10
4.824232
20
9.579139
11
4.824231
21
9.562194
0
LINE
8
hole
62
5
10
4.824231
20
9.562194
11
4.824232
21
9.545564
0
LINE
8
hole
62
5
10
4.824232
20
9.545564
11
4.824232
21
9.528849
0
LINE
8
hole
62
5
10
4.824232
20
9.528849
11
4.824233
21
9.511765
0
LINE
8
hole
62
5
10
4.824233
20
9.511765
11
4.824235
21
9.494591
0
LINE
8
hole
62
5
10
4.824235
20
9.494591
11
4.824235
21
9.477734
0
LINE
8
hole
62
5
10
4.824235
20
9.477734
11
4.824234
21
9.460790
0
LINE
8
hole
62
5
10
4.824234
20
9.460790
11
4.824172
21
9.443926
0
LINE
8
hole
62
5
10
4.824172
20
9.443926
11
4.824110
21
9.426974
0
LINE
8
hole
62
5
10
4.824110
20
9.426974
11
4.823462
21
9.410137
0
LINE
8
hole
62
5
10
4.823462
20
9.410137
11
4.822810
21
9.393212
0
LINE
8
hole
62
5
10
4.822810
20
9.393212
11
4.820863
21
9.376490
0
LINE
8
hole
62
5
10
4.820863
20
9.376490
11
4.820075
21
9.369724
0
LINE
8
hole
62
5
10
4.820075
20
9.369724
11
4.820075
21
9.369724
0
LINE
8
hole
62
5
10
4.820075
20
9.369724
11
4.838825
21
9.350974
0
LINE
8
hole
62
5
10
4.838825
20
9.350974
11
5.144068
21
9.350974
0
LINE
8
hole
62
5
10
5.144068
20
9.350974
11
5.164344
21
9.364523
0
LINE
8
hole
62
5
10
5.164344
20
9.364523
11
5.188262
21
9.369280
0
LINE
8
hole
62
5
10
5.188262
20
9.369280
11
5.212180
21
9.364523
0
LINE
8
hole
62
5
10
5.212180
20
9.364523
11
5.232456
21
9.350974
0
LINE
8
hole
62
5
10
5.232456
20
9.350974
11
5.246004
21
9.330698
0
LINE
8
hole
62
5
10
5.246004
20
9.330698
11
5.250762
21
9.306780
0
LINE
8
hole
62
5
10
5.250762
20
9.306780
11
5.246004
21
9.282862
0
LINE
8
hole
62
5
10
5.246004
20
9.282862
11
5.232456
21
9.262586
0
LINE
8
hole
62
5
10
5.232456
20
9.262586
11
5.232456
21
9.064363
0
LINE
8
hole
62
5
10
5.232456
20
9.064363
11
5.246004
21
9.044086
0
LINE
8
hole
62
5
10
5.246004
20
9.044086
11
5.250762
21
9.020169
0
LINE
8
hole
62
5
10
5.250762
20
9.020169
11
5.246004
21
8.996251
0
LINE
8
hole
62
5
10
5.246004
20
8.996251
11
5.232456
21
8.975974
0
LINE
8
hole
62
5
10
5.232456
20
8.975974
11
5.212180
21
8.962426
0
LINE
8
hole
62
5
10
5.212180
20
8.962426
11
5.188262
21
8.957669
0
LINE
8
hole
62
5
10
5.188262
20
8.957669
11
5.164344
21
8.962426
0
LINE
8
hole
62
5
10
5.164344
20
8.962426
11
5.144068
21
8.975974
0
LINE
8
hole
62
5
10
5.144068
20
8.975974
11
4.593774
21
8.975974
0
LINE
8
hole
62
5
10
4.593774
20
8.975974
11
4.575024
21
8.957224
0
LINE
8
hole
62
5
10
4.575024
20
8.957224
11
4.566964
21
8.948713
0
LINE
8
hole
62
5
10
4.566964
20
8.948713
11
4.554920
21
8.935995
0
LINE
8
hole
62
5
10
4.554920
20
8.935995
11
4.543260
21
8.923820
0
LINE
8
hole
62
5
10
4.543260
20
8.923820
11
4.531540
21
8.911582
0
LINE
8
hole
62
5
10
4.531540
20
8.911582
11
4.519858
21
8.899428
0
LINE
8
hole
62
5
10
4.519858
20
8.899428
11
4.508115
21
8.887212
0
LINE
8
hole
62
5
10
4.508115
20
8.887212
11
4.496736
21
8.875326
0
LINE
8
hole
62
5
10
4.496736
20
8.875326
11
4.485297
21
8.863378
0
LINE
8
hole
62
5
10
4.485297
20
8.863378
11
4.473431
21
8.850844
0
LINE
8
hole
62
5
10
4.473431
20
8.850844
11
4.461504
21
8.838245
0
LINE
8
hole
62
5
10
4.461504
20
8.838245
11
4.449950
21
8.825866
0
LINE
8
hole
62
5
10
4.449950
20
8.825866
11
4.438337
21
8.813423
0
LINE
8
hole
62
5
10
4.438337
20
8.813423
11
4.426977
21
8.801069
0
LINE
8
hole
62
5
10
4.426977
20
8.801069
11
4.415558
21
8.788652
0
LINE
8
hole
62
5
10
4.415558
20
8.788652
11
4.404240
21
8.776159
0
LINE
8
hole
62
5
10
4.404240
20
8.776159
11
4.392862
21
8.763601
0
LINE
8
hole
62
5
10
4.392862
20
8.763601
11
4.381633
21
8.751028
0
LINE
8
hole
62
5
10
4.381633
20
8.751028
11
4.370345
21
8.738391
0
LINE
8
hole
62
5
10
4.370345
20
8.738391
11
4.359204
21
8.725740
0
LINE
8
hole
62
5
10
4.359204
20
8.725740
11
4.348005
21
8.713023
0
LINE
8
hole
62
5
10
4.348005
20
8.713023
11
4.337085
21
8.700452
0
LINE
8
hole
62
5
10
4.337085
20
8.700452
11
4.326109
21
8.687815
0
LINE
8
hole
62
5
10
4.326109
20
8.687815
11
4.315006
21
8.674858
0
LINE
8
hole
62
5
10
4.315006
20
8.674858
11
4.303846
21
8.661833
0
LINE
8
hole
62
5
10
4.303846
20
8.661833
11
4.292962
21
8.648960
0
LINE
8
hole
62
5
10
4.292962
20
8.648960
11
4.282021
21
8.636020
0
LINE
8
hole
62
5
10
4.282021
20
8.636020
11
4.271220
21
8.623078
0
LINE
8
hole
62
5
10
4.271220
20
8.623078
11
4.260362
21
8.610068
0
LINE
8
hole
62
5
10
4.260362
20
8.610068
11
4.249641
21
8.597059
0
LINE
8
hole
62
5
10
4.249641
20
8.597059
11
4.238865
21
8.583983
0
LINE
8
hole
62
5
10
4.238865
20
8.583983
11
4.228223
21
8.570909
0
LINE
8
hole
62
5
10
4.228223
20
8.570909
11
4.217526
21
8.557768
0
LINE
8
hole
62
5
10
4.217526
20
8.557768
11
4.206960
21
8.544632
0
LINE
8
hole
62
5
10
4.206960
20
8.544632
11
4.196340
21
8.531427
0
LINE
8
hole
62
5
10
4.196340
20
8.531427
11
4.185849
21
8.518233
0
LINE
8
hole
62
5
10
4.185849
20
8.518233
11
4.175304
21
8.504969
0
LINE
8
hole
62
5
10
4.175304
20
8.504969
11
4.164885
21
8.491716
0
LINE
8
hole
62
5
10
4.164885
20
8.491716
11
4.154412
21
8.478395
0
LINE
8
hole
62
5
10
4.154412
20
8.478395
11
4.144062
21
8.465088
0
LINE
8
hole
62
5
10
4.144062
20
8.465088
11
4.133659
21
8.451713
0
LINE
8
hole
62
5
10
4.133659
20
8.451713
11
4.123613
21
8.438662
0
LINE
8
hole
62
5
10
4.123613
20
8.438662
11
4.113514
21
8.425544
0
LINE
8
hole
62
5
10
4.113514
20
8.425544
11
4.103060
21
8.411828
0
LINE
8
hole
62
5
10
4.103060
20
8.411828
11
4.092551
21
8.398042
0
LINE
8
hole
62
5
10
4.092551
20
8.398042
11
4.082837
21
8.385175
0
LINE
8
hole
62
5
10
4.082837
20
8.385175
11
4.073072
21
8.372241
0
LINE
8
hole
62
5
10
4.073072
20
8.372241
11
4.062532
21
8.358154
0
LINE
8
hole
62
5
10
4.062532
20
8.358154
11
4.051938
21
8.343995
0
LINE
8
hole
62
5
10
4.051938
20
8.343995
11
4.041431
21
8.329827
0
LINE
8
hole
62
5
10
4.041431
20
8.329827
11
4.030869
21
8.315584
0
LINE
8
hole
62
5
10
4.030869
20
8.315584
11
4.021344
21
8.302635
0
LINE
8
hole
62
5
10
4.021344
20
8.302635
11
4.011769
21
8.289618
0
LINE
8
hole
62
5
10
4.011769
20
8.289618
11
4.002166
21
8.276463
0
LINE
8
hole
62
5
10
4.002166
20
8.276463
11
3.992514
21
8.263239
0
LINE
8
hole
62
5
10
3.992514
20
8.263239
11
3.982293
21
8.249124
0
LINE
8
hole
62
5
10
3.982293
20
8.249124
11
3.972019
21
8.234934
0
LINE
8
hole
62
5
10
3.972019
20
8.234934
11
3.962243
21
8.221314
0
LINE
8
hole
62
5
10
3.962243
20
8.221314
11
3.952416
21
8.207624
0
LINE
8
hole
62
5
10
3.952416
20
8.207624
11
3.942592
21
8.193810
0
LINE
8
hole
62
5
10
3.942592
20
8.193810
11
3.932716
21
8.179925
0
LINE
8
hole
62
5
10
3.932716
20
8.179925
11
3.923008
21
8.166144
0
LINE
8
hole
62
5
10
3.923008
20
8.166144
11
3.913250
21
8.152291
0
LINE
8
hole
62
5
10
3.913250
20
8.152291
11
3.903609
21
8.138466
0
LINE
8
hole
62
5
10
3.903609
20
8.138466
11
3.893919
21
8.124569
0
LINE
8
hole
62
5
10
3.893919
20
8.124569
11
3.884345
21
8.110694
0
LINE
8
hole
62
5
10
3.884345
20
8.110694
11
3.874722
21
8.096745
0
LINE
8
hole
62
5
10
3.874722
20
8.096745
11
3.865430
21
8.083127
0
LINE
8
hole
62
5
10
3.865430
20
8.083127
11
3.856090
21
8.069440
0
LINE
8
hole
62
5
10
3.856090
20
8.069440
11
3.846454
21
8.055154
0
LINE
8
hole
62
5
10
3.846454
20
8.055154
11
3.836769
21
8.040794
0
LINE
8
hole
62
5
10
3.836769
20
8.040794
11
3.827422
21
8.026765
0
LINE
8
hole
62
5
10
3.827422
20
8.026765
11
3.818027
21
8.012663
0
LINE
8
hole
62
5
10
3.818027
20
8.012663
11
3.808763
21
7.998579
0
LINE
8
hole
62
5
10
3.808763
20
7.998579
11
3.799451
21
7.984423
0
LINE
8
hole
62
5
10
3.799451
20
7.984423
11
3.790273
21
7.970284
0
LINE
8
hole
62
5
10
3.790273
20
7.970284
11
3.781048
21
7.956072
0
LINE
8
hole
62
5
10
3.781048
20
7.956072
11
3.771958
21
7.941874
0
LINE
8
hole
62
5
10
3.771958
20
7.941874
11
3.762822
21
7.927602
0
LINE
8
hole
62
5
10
3.762822
20
7.927602
11
3.753824
21
7.913347
0
LINE
8
hole
62
5
10
3.753824
20
7.913347
11
3.744780
21
7.899017
0
LINE
8
hole
62
5
10
3.744780
20
7.899017
11
3.735879
21
7.884701
0
LINE
8
hole
62
5
10
3.735879
20
7.884701
11
3.726932
21
7.870310
0
LINE
8
hole
62
5
10
3.726932
20
7.870310
11
3.718136
21
7.855931
0
LINE
8
hole
62
5
10
3.718136
20
7.855931
11
3.709294
21
7.841476
0
LINE
8
hole
62
5
10
3.709294
20
7.841476
11
3.700603
21
7.827032
0
LINE
8
hole
62
5
10
3.700603
20
7.827032
11
3.691867
21
7.812513
0
LINE
8
hole
62
5
10
3.691867
20
7.812513
11
3.683553
21
7.798490
0
LINE
8
hole
62
5
10
3.683553
20
7.798490
11
3.675196
21
7.784394
0
LINE
8
hole
62
5
10
3.675196
20
7.784394
11
3.666420
21
7.769354
0
LINE
8
hole
62
5
10
3.666420
20
7.769354
11
3.657599
21
7.754236
0
LINE
8
hole
62
5
10
3.657599
20
7.754236
11
3.649265
21
7.739585
0
LINE
8
hole
62
5
10
3.649265
20
7.739585
11
3.640889
21
7.724857
0
LINE
8
hole
62
5
10
3.640889
20
7.724857
11
3.632768
21
7.710090
0
LINE
8
hole
62
5
10
3.632768
20
7.710090
11
3.624605
21
7.695246
0
LINE
8
hole
62
5
10
3.624605
20
7.695246
11
3.616409
21
7.679824
0
LINE
8
hole
62
5
10
3.616409
20
7.679824
11
3.608169
21
7.664320
0
LINE
8
hole
62
5
10
3.608169
20
7.664320
11
3.600702
21
7.649901
0
LINE
8
hole
62
5
10
3.600702
20
7.649901
11
3.593196
21
7.635406
0
LINE
8
hole
62
5
10
3.593196
20
7.635406
11
3.585750
21
7.621113
0
LINE
8
hole
62
5
10
3.585750
20
7.621113
11
3.578265
21
7.606746
0
LINE
8
hole
62
5
10
3.578265
20
7.606746
11
3.569882
21
7.591278
0
LINE
8
hole
62
5
10
3.569882
20
7.591278
11
3.561456
21
7.575729
0
LINE
8
hole
62
5
10
3.561456
20
7.575729
11
3.553275
21
7.561296
0
LINE
8
hole
62
5
10
3.553275
20
7.561296
11
3.545053
21
7.546787
0
LINE
8
hole
62
5
10
3.545053
20
7.546787
11
3.536365
21
7.532067
0
LINE
8
hole
62
5
10
3.536365
20
7.532067
11
3.527632
21
7.517269
0
LINE
8
hole
62
5
10
3.527632
20
7.517269
11
3.518725
21
7.502965
0
LINE
8
hole
62
5
10
3.518725
20
7.502965
11
3.509771
21
7.488587
0
LINE
8
hole
62
5
10
3.509771
20
7.488587
11
3.500371
21
7.474527
0
LINE
8
hole
62
5
10
3.500371
20
7.474527
11
3.490922
21
7.460393
0
LINE
8
hole
62
5
10
3.490922
20
7.460393
11
3.481073
21
7.446715
0
LINE
8
hole
62
5
10
3.481073
20
7.446715
11
3.471172
21
7.432967
0
LINE
8
hole
62
5
10
3.471172
20
7.432967
11
3.461305
21
7.420281
0
LINE
8
hole
62
5
10
3.461305
20
7.420281
11
3.451388
21
7.407529
0
LINE
8
hole
62
5
10
3.451388
20
7.407529
11
3.439673
21
7.394847
0
LINE
8
hole
62
5
10
3.439673
20
7.394847
11
3.427897
21
7.382099
0
LINE
8
hole
62
5
10
3.427897
20
7.382099
11
3.413942
21
7.371043
0
LINE
8
hole
62
5
10
3.413942
20
7.371043
11
3.399915
21
7.359929
0
LINE
8
hole
62
5
10
3.399915
20
7.359929
11
3.384287
21
7.353082
0
LINE
8
hole
62
5
10
3.384287
20
7.353082
11
3.368577
21
7.346198
0
LINE
8
hole
62
5
10
3.368577
20
7.346198
11
3.354384
21
7.348906
0
LINE
8
hole
62
5
10
3.354384
20
7.348906
11
3.340117
21
7.351628
0
LINE
8
hole
62
5
10
3.340117
20
7.351628
11
3.329330
21
7.364182
0
LINE
8
hole
62
5
10
3.329330
20
7.364182
11
3.318487
21
7.376802
0
LINE
8
hole
62
5
10
3.318487
20
7.376802
11
3.311556
21
7.393240
0
LINE
8
hole
62
5
10
3.311556
20
7.393240
11
3.304589
21
7.409763
0
LINE
8
hole
62
5
10
3.304589
20
7.409763
11
3.301116
21
7.426244
0
LINE
8
hole
62
5
10
3.301116
20
7.426244
11
3.297627
21
7.442810
0
LINE
8
hole
62
5
10
3.297627
20
7.442810
11
3.296048
21
7.459370
0
LINE
8
hole
62
5
10
3.296048
20
7.459370
11
3.294462
21
7.476017
0
LINE
8
hole
62
5
10
3.294462
20
7.476017
11
3.293711
21
7.492841
0
LINE
8
hole
62
5
10
3.293711
20
7.492841
11
3.292955
21
7.509753
0
LINE
8
hole
62
5
10
3.292955
20
7.509753
11
3.293115
21
7.525931
0
LINE
8
hole
62
5
10
3.293115
20
7.525931
11
3.293277
21
7.542193
0
LINE
8
hole
62
5
10
3.293277
20
7.542193
11
3.294607
21
7.559728
0
LINE
8
hole
62
5
10
3.294607
20
7.559728
11
3.295944
21
7.577353
0
LINE
8
hole
62
5
10
3.295944
20
7.577353
11
3.298424
21
7.594809
0
LINE
8
hole
62
5
10
3.298424
20
7.594809
11
3.300917
21
7.612356
0
LINE
8
hole
62
5
10
3.300917
20
7.612356
11
3.304044
21
7.628107
0
LINE
8
hole
62
5
10
3.304044
20
7.628107
11
3.307188
21
7.643939
0
LINE
8
hole
62
5
10
3.307188
20
7.643939
11
3.311242
21
7.660765
0
LINE
8
hole
62
5
10
3.311242
20
7.660765
11
3.315317
21
7.677680
0
LINE
8
hole
62
5
10
3.315317
20
7.677680
11
3.319599
21
7.693524
0
LINE
8
hole
62
5
10
3.319599
20
7.693524
11
3.323903
21
7.709449
0
LINE
8
hole
62
5
10
3.323903
20
7.709449
11
3.328629
21
7.725627
0
LINE
8
hole
62
5
10
3.328629
20
7.725627
11
3.333379
21
7.741890
0
LINE
8
hole
62
5
10
3.333379
20
7.741890
11
3.338355
21
7.757995
0
LINE
8
hole
62
5
10
3.338355
20
7.757995
11
3.343357
21
7.774183
0
LINE
8
hole
62
5
10
3.343357
20
7.774183
11
3.348394
21
7.789822
0
LINE
8
hole
62
5
10
3.348394
20
7.789822
11
3.353457
21
7.805542
0
LINE
8
hole
62
5
10
3.353457
20
7.805542
11
3.358909
21
7.821948
0
LINE
8
hole
62
5
10
3.358909
20
7.821948
11
3.364389
21
7.838439
0
LINE
8
hole
62
5
10
3.364389
20
7.838439
11
3.369826
21
7.854394
0
LINE
8
hole
62
5
10
3.369826
20
7.854394
11
3.375290
21
7.870432
0
LINE
8
hole
62
5
10
3.375290
20
7.870432
11
3.380823
21
7.886355
0
LINE
8
hole
62
5
10
3.380823
20
7.886355
11
3.386384
21
7.902362
0
LINE
8
hole
62
5
10
3.386384
20
7.902362
11
3.391997
21
7.918257
0
LINE
8
hole
62
5
10
3.391997
20
7.918257
11
3.397638
21
7.934235
0
LINE
8
hole
62
5
10
3.397638
20
7.934235
11
3.403076
21
7.949440
0
LINE
8
hole
62
5
10
3.403076
20
7.949440
11
3.408543
21
7.964724
0
LINE
8
hole
62
5
10
3.408543
20
7.964724
11
3.414517
21
7.981244
0
LINE
8
hole
62
5
10
3.414517
20
7.981244
11
3.420522
21
7.997849
0
LINE
8
hole
62
5
10
3.420522
20
7.997849
11
3.426582
21
8.014443
0
LINE
8
hole
62
5
10
3.426582
20
8.014443
11
3.432673
21
8.031122
0
LINE
8
hole
62
5
10
3.432673
20
8.031122
11
3.438218
21
8.046184
0
LINE
8
hole
62
5
10
3.438218
20
8.046184
11
3.443791
21
8.061324
0
LINE
8
hole
62
5
10
3.443791
20
8.061324
11
3.449649
21
8.077131
0
LINE
8
hole
62
5
10
3.449649
20
8.077131
11
3.455538
21
8.093020
0
LINE
8
hole
62
5
10
3.455538
20
8.093020
11
3.461427
21
8.108815
0
LINE
8
hole
62
5
10
3.461427
20
8.108815
11
3.467347
21
8.124693
0
LINE
8
hole
62
5
10
3.467347
20
8.124693
11
3.473263
21
8.140478
0
LINE
8
hole
62
5
10
3.473263
20
8.140478
11
3.479210
21
8.156346
0
LINE
8
hole
62
5
10
3.479210
20
8.156346
11
3.485150
21
8.172122
0
LINE
8
hole
62
5
10
3.485150
20
8.172122
11
3.491121
21
8.187980
0
LINE
8
hole
62
5
10
3.491121
20
8.187980
11
3.497083
21
8.203748
0
LINE
8
hole
62
5
10
3.497083
20
8.203748
11
3.503076
21
8.219598
0
LINE
8
hole
62
5
10
3.503076
20
8.219598
11
3.509056
21
8.235359
0
LINE
8
hole
62
5
10
3.509056
20
8.235359
11
3.515068
21
8.251202
0
LINE
8
hole
62
5
10
3.515068
20
8.251202
11
3.521066
21
8.266956
0
LINE
8
hole
62
5
10
3.521066
20
8.266956
11
3.527095
21
8.282792
0
LINE
8
hole
62
5
10
3.527095
20
8.282792
11
3.533108
21
8.298541
0
LINE
8
hole
62
5
10
3.533108
20
8.298541
11
3.539153
21
8.314372
0
LINE
8
hole
62
5
10
3.539153
20
8.314372
11
3.545404
21
8.330699
0
LINE
8
hole
62
5
10
3.545404
20
8.330699
11
3.551687
21
8.347111
0
LINE
8
hole
62
5
10
3.551687
20
8.347111
11
3.557503
21
8.362265
0
LINE
8
hole
62
5
10
3.557503
20
8.362265
11
3.563349
21
8.377498
0
LINE
8
hole
62
5
10
3.563349
20
8.377498
11
3.569500
21
8.393492
0
LINE
8
hole
62
5
10
3.569500
20
8.393492
11
3.575684
21
8.409569
0
LINE
8
hole
62
5
10
3.575684
20
8.409569
11
3.581645
21
8.425039
0
LINE
8
hole
62
5
10
3.581645
20
8.425039
11
3.587638
21
8.440590
0
LINE
8
hole
62
5
10
3.587638
20
8.440590
11
3.593709
21
8.456316
0
LINE
8
hole
62
5
10
3.593709
20
8.456316
11
3.599812
21
8.472124
0
LINE
8
hole
62
5
10
3.599812
20
8.472124
11
3.605892
21
8.487847
0
LINE
8
hole
62
5
10
3.605892
20
8.487847
11
3.612003
21
8.503651
0
LINE
8
hole
62
5
10
3.612003
20
8.503651
11
3.617875
21
8.518815
0
LINE
8
hole
62
5
10
3.617875
20
8.518815
11
3.623778
21
8.534058
0
LINE
8
hole
62
5
10
3.623778
20
8.534058
11
3.630089
21
8.550331
0
LINE
8
hole
62
5
10
3.630089
20
8.550331
11
3.636433
21
8.566689
0
LINE
8
hole
62
5
10
3.636433
20
8.566689
11
3.642778
21
8.583030
0
LINE
8
hole
62
5
10
3.642778
20
8.583030
11
3.649156
21
8.599455
0
LINE
8
hole
62
5
10
3.649156
20
8.599455
11
3.655021
21
8.614541
0
LINE
8
hole
62
5
10
3.655021
20
8.614541
11
3.660916
21
8.629704
0
LINE
8
hole
62
5
10
3.660916
20
8.629704
11
3.667030
21
8.645414
0
LINE
8
hole
62
5
10
3.667030
20
8.645414
11
3.673176
21
8.661206
0
LINE
8
hole
62
5
10
3.673176
20
8.661206
11
3.679295
21
8.676914
0
LINE
8
hole
62
5
10
3.679295
20
8.676914
11
3.685446
21
8.692703
0
LINE
8
hole
62
5
10
3.685446
20
8.692703
11
3.691570
21
8.708409
0
LINE
8
hole
62
5
10
3.691570
20
8.708409
11
3.697726
21
8.724195
0
LINE
8
hole
62
5
10
3.697726
20
8.724195
11
3.704088
21
8.740496
0
LINE
8
hole
62
5
10
3.704088
20
8.740496
11
3.710482
21
8.756881
0
LINE
8
hole
62
5
10
3.710482
20
8.756881
11
3.716383
21
8.771987
0
LINE
8
hole
62
5
10
3.716383
20
8.771987
11
3.722314
21
8.787171
0
LINE
8
hole
62
5
10
3.722314
20
8.787171
11
3.728451
21
8.802872
0
LINE
8
hole
62
5
10
3.728451
20
8.802872
11
3.734619
21
8.818655
0
LINE
8
hole
62
5
10
3.734619
20
8.818655
11
3.740760
21
8.834355
0
LINE
8
hole
62
5
10
3.740760
20
8.834355
11
3.746933
21
8.850135
0
LINE
8
hole
62
5
10
3.746933
20
8.850135
11
3.753077
21
8.865833
0
LINE
8
hole
62
5
10
3.753077
20
8.865833
11
3.759253
21
8.881613
0
LINE
8
hole
62
5
10
3.759253
20
8.881613
11
3.765400
21
8.897309
0
LINE
8
hole
62
5
10
3.765400
20
8.897309
11
3.771579
21
8.913088
0
LINE
8
hole
62
5
10
3.771579
20
8.913088
11
3.777729
21
8.928783
0
LINE
8
hole
62
5
10
3.777729
20
8.928783
11
3.783912
21
8.944560
0
LINE
8
hole
62
5
10
3.783912
20
8.944560
11
3.790065
21
8.960255
0
LINE
8
hole
62
5
10
3.790065
20
8.960255
11
3.796250
21
8.976030
0
LINE
8
hole
62
5
10
3.796250
20
8.976030
11
3.802405
21
8.991724
0
LINE
8
hole
62
5
10
3.802405
20
8.991724
11
3.808593
21
9.007499
0
LINE
8
hole
62
5
10
3.808593
20
9.007499
11
3.814751
21
9.023191
0
LINE
8
hole
62
5
10
3.814751
20
9.023191
11
3.820941
21
9.038965
0
LINE
8
hole
62
5
10
3.820941
20
9.038965
11
3.827269
21
9.055083
0
LINE
8
hole
62
5
10
3.827269
20
9.055083
11
3.833629
21
9.071285
0
LINE
8
hole
62
5
10
3.833629
20
9.071285
11
3.839624
21
9.086550
0
LINE
8
hole
62
5
10
3.839624
20
9.086550
11
3.845651
21
9.101893
0
LINE
8
hole
62
5
10
3.845651
20
9.101893
11
3.851856
21
9.117686
0
LINE
8
hole
62
5
10
3.851856
20
9.117686
11
3.858093
21
9.133561
0
LINE
8
hole
62
5
10
3.858093
20
9.133561
11
3.864219
21
9.149147
0
LINE
8
hole
62
5
10
3.864219
20
9.149147
11
3.870376
21
9.164814
0
LINE
8
hole
62
5
10
3.870376
20
9.164814
11
3.876544
21
9.180504
0
LINE
8
hole
62
5
10
3.876544
20
9.180504
11
3.882744
21
9.196274
0
LINE
8
hole
62
5
10
3.882744
20
9.196274
11
3.888914
21
9.211962
0
LINE
8
hole
62
5
10
3.888914
20
9.211962
11
3.895115
21
9.227731
0
LINE
8
hole
62
5
10
3.895115
20
9.227731
11
3.901007
21
9.242708
0
LINE
8
hole
62
5
10
3.901007
20
9.242708
11
3.906929
21
9.257763
0
LINE
8
hole
62
5
10
3.906929
20
9.257763
11
3.913381
21
9.274160
0
LINE
8
hole
62
5
10
3.913381
20
9.274160
11
3.919867
21
9.290643
0
LINE
8
hole
62
5
10
3.919867
20
9.290643
11
3.926225
21
9.306798
0
LINE
8
hole
62
5
10
3.926225
20
9.306798
11
3.932617
21
9.323038
0
LINE
8
hole
62
5
10
3.932617
20
9.323038
11
3.938608
21
9.338254
0
LINE
8
hole
62
5
10
3.938608
20
9.338254
11
3.944629
21
9.353550
0
LINE
8
hole
62
5
10
3.944629
20
9.353550
11
3.950805
21
9.369235
0
LINE
8
hole
62
5
10
3.950805
20
9.369235
11
3.957014
21
9.385003
0
LINE
8
hole
62
5
10
3.957014
20
9.385003
11
3.963191
21
9.400687
0
LINE
8
hole
62
5
10
3.963191
20
9.400687
11
3.969401
21
9.416453
0
LINE
8
hole
62
5
10
3.969401
20
9.416453
11
3.975579
21
9.432137
0
LINE
8
hole
62
5
10
3.975579
20
9.432137
11
3.981789
21
9.447904
0
LINE
8
hole
62
5
10
3.981789
20
9.447904
11
3.988142
21
9.464028
0
LINE
8
hole
62
5
10
3.988142
20
9.464028
11
3.994528
21
9.480235
0
LINE
8
hole
62
5
10
3.994528
20
9.480235
11
4.000535
21
9.495480
0
LINE
8
hole
62
5
10
4.000535
20
9.495480
11
4.006573
21
9.510802
0
LINE
8
hole
62
5
10
4.006573
20
9.510802
11
4.012754
21
9.526486
0
LINE
8
hole
62
5
10
4.012754
20
9.526486
11
4.018967
21
9.542251
0
LINE
8
hole
62
5
10
4.018967
20
9.542251
11
4.025149
21
9.557934
0
LINE
8
hole
62
5
10
4.025149
20
9.557934
11
4.031363
21
9.573699
0
LINE
8
hole
62
5
10
4.031363
20
9.573699
11
4.037545
21
9.589382
0
LINE
8
hole
62
5
10
4.037545
20
9.589382
11
4.043760
21
9.605146
0
LINE
8
hole
62
5
10
4.043760
20
9.605146
11
4.049943
21
9.620828
0
LINE
8
hole
62
5
10
4.049943
20
9.620828
11
4.056158
21
9.636593
0
LINE
8
hole
62
5
10
4.056158
20
9.636593
11
4.062342
21
9.652275
0
LINE
8
hole
62
5
10
4.062342
20
9.652275
11
4.068559
21
9.668039
0
LINE
8
hole
62
5
10
4.068559
20
9.668039
11
4.074743
21
9.683722
0
LINE
8
hole
62
5
10
4.074743
20
9.683722
11
4.080959
21
9.699485
0
LINE
8
hole
62
5
10
4.080959
20
9.699485
11
4.087144
21
9.715165
0
LINE
8
hole
62
5
10
4.087144
20
9.715165
11
4.093360
21
9.730927
0
LINE
8
hole
62
5
10
4.093360
20
9.730927
11
4.099545
21
9.746607
0
LINE
8
hole
62
5
10
4.099545
20
9.746607
11
4.105762
21
9.762369
0
LINE
8
hole
62
5
10
4.105762
20
9.762369
11
4.112056
21
9.778324
0
LINE
8
hole
62
5
10
4.112056
20
9.778324
11
4.118383
21
9.794361
0
LINE
8
hole
62
5
10
4.118383
20
9.794361
11
4.124463
21
9.809771
0
LINE
8
hole
62
5
10
4.124463
20
9.809771
11
4.130576
21
9.825261
0
LINE
8
hole
62
5
10
4.130576
20
9.825261
11
4.136744
21
9.840889
0
LINE
8
hole
62
5
10
4.136744
20
9.840889
11
4.142944
21
9.856599
0
LINE
8
hole
62
5
10
4.142944
20
9.856599
11
4.149159
21
9.872338
0
LINE
8
hole
62
5
10
4.149159
20
9.872338
11
4.155405
21
9.888159
0
LINE
8
hole
62
5
10
4.155405
20
9.888159
11
4.161595
21
9.903832
0
LINE
8
hole
62
5
10
4.161595
20
9.903832
11
4.167817
21
9.919587
0
LINE
8
hole
62
5
10
4.167817
20
9.919587
11
4.174008
21
9.935264
0
LINE
8
hole
62
5
10
4.174008
20
9.935264
11
4.180232
21
9.951023
0
LINE
8
hole
62
5
10
4.180232
20
9.951023
11
4.186465
21
9.966799
0
LINE
8
hole
62
5
10
4.186465
20
9.966799
11
4.192732
21
9.982656
0
LINE
8
hole
62
5
10
4.192732
20
9.982656
11
4.198893
21
9.998234
0
LINE
8
hole
62
5
10
4.198893
20
9.998234
11
4.205087
21
10.013892
0
LINE
8
hole
62
5
10
4.205087
20
10.013892
11
4.211404
21
10.029875
0
LINE
8
hole
62
5
10
4.211404
20
10.029875
11
4.217753
21
10.045942
0
LINE
8
hole
62
5
10
4.217753
20
10.045942
11
4.223811
21
10.061311
0
LINE
8
hole
62
5
10
4.223811
20
10.061311
11
4.229900
21
10.076760
0
LINE
8
hole
62
5
10
4.229900
20
10.076760
11
4.236097
21
10.092433
0
LINE
8
hole
62
5
10
4.236097
20
10.092433
11
4.242326
21
10.108186
0
LINE
8
hole
62
5
10
4.242326
20
10.108186
11
4.248584
21
10.123836
0
LINE
8
hole
62
5
10
4.248584
20
10.123836
11
4.254874
21
10.139567
0
LINE
8
hole
62
5
10
4.254874
20
10.139567
11
4.261089
21
10.155232
0
LINE
8
hole
62
5
10
4.261089
20
10.155232
11
4.267336
21
10.170978
0
LINE
8
hole
62
5
10
4.267336
20
10.170978
11
4.273434
21
10.186998
0
LINE
8
hole
62
5
10
4.273434
20
10.186998
11
4.279564
21
10.203102
0
LINE
8
hole
62
5
10
4.279564
20
10.203102
11
4.285553
21
10.218524
0
LINE
8
hole
62
5
10
4.285553
20
10.218524
11
4.291573
21
10.234026
0
LINE
8
hole
62
5
10
4.291573
20
10.234026
11
4.298532
21
10.249414
0
LINE
8
hole
62
5
10
4.298532
20
10.249414
11
4.305527
21
10.264882
0
LINE
8
hole
62
5
10
4.305527
20
10.264882
11
4.314206
21
10.279262
0
LINE
8
hole
62
5
10
4.314206
20
10.279262
11
4.322929
21
10.293717
0
LINE
8
hole
62
5
10
4.322929
20
10.293717
11
4.334244
21
10.305936
0
LINE
8
hole
62
5
10
4.334244
20
10.305936
11
4.345618
21
10.318219
0
LINE
8
hole
62
5
10
4.345618
20
10.318219
11
4.359694
21
10.327437
0
LINE
8
hole
62
5
10
4.359694
20
10.327437
11
4.373842
21
10.336703
0
LINE
8
hole
62
5
10
4.373842
20
10.336703
11
4.389708
21
10.342566
0
LINE
8
hole
62
5
10
4.389708
20
10.342566
11
4.405657
21
10.348458
0
LINE
8
hole
62
5
10
4.405657
20
10.348458
11
4.422341
21
10.350743
0
LINE
8
hole
62
5
10
4.422341
20
10.350743
11
4.439112
21
10.353041
0
LINE
8
hole
62
5
10
4.439112
20
10.353041
11
4.455803
21
10.351710
0
LINE
8
hole
62
5
10
4.455803
20
10.351710
11
4.472581
21
10.350372
0
LINE
8
hole
62
5
10
4.472581
20
10.350372
11
4.488801
21
10.345980
0
LINE
8
hole
62
5
10
4.488801
20
10.345980
11
4.505106
21
10.341565
0
LINE
8
hole
62
5
10
4.505106
20
10.341565
11
4.521216
21
10.335943
0
LINE
8
hole
62
5
10
4.521216
20
10.335943
11
4.537409
21
10.330291
0
LINE
8
hole
62
5
10
4.537409
20
10.330291
11
4.553319
21
10.325044
0
LINE
8
hole
62
5
10
4.553319
20
10.325044
11
4.569312
21
10.319769
0
LINE
8
hole
62
5
10
4.569312
20
10.319769
11
4.585121
21
10.314682
0
LINE
8
hole
62
5
10
4.585121
20
10.314682
11
4.601011
21
10.309568
0
LINE
8
hole
62
5
10
4.601011
20
10.309568
11
4.617200
21
10.304167
0
LINE
8
hole
62
5
10
4.617200
20
10.304167
11
4.633473
21
10.298738
0
LINE
8
hole
62
5
10
4.633473
20
10.298738
11
4.649532
21
10.293563
0
LINE
8
hole
62
5
10
4.649532
20
10.293563
11
4.665675
21
10.288362
0
LINE
8
hole
62
5
10
4.665675
20
10.288362
11
4.681888
21
10.283524
0
LINE
8
hole
62
5
10
4.681888
20
10.283524
11
4.698187
21
10.278661
0
LINE
8
hole
62
5
10
3.055379
20
4.710486
11
3.055379
21
4.710486
0
LINE
8
hole
62
5
10
3.055379
20
4.710486
11
3.079090
21
4.687101
0
LINE
8
hole
62
5
10
3.079090
20
4.687101
11
3.079090
21
4.687101
0
LINE
8
hole
62
5
10
3.079090
20
4.687101
11
3.102670
21
4.661490
0
LINE
8
hole
62
5
10
3.102670
20
4.661490
11
3.102670
21
4.661490
0
LINE
8
hole
62
5
10
3.102670
20
4.661490
11
3.123109
21
4.637144
0
LINE
8
hole
62
5
10
3.123109
20
4.637144
11
3.123109
21
4.637144
0
LINE
8
hole
62
5
10
3.123109
20
4.637144
11
3.143383
21
4.610724
0
LINE
8
hole
62
5
10
3.143383
20
4.610724
11
3.143383
21
4.610724
0
LINE
8
hole
62
5
10
3.143383
20
4.610724
11
3.162454
21
4.583428
0
LINE
8
hole
62
5
10
3.162454
20
4.583428
11
3.162454
21
4.583428
0
LINE
8
hole
62
5
10
3.162454
20
4.583428
11
3.180321
21
4.555327
0
LINE
8
hole
62
5
10
3.180321
20
4.555327
11
3.180321
21
4.555327
0
LINE
8
hole
62
5
10
3.180321
20
4.555327
11
3.197059
21
4.526536
0
LINE
8
hole
62
5
10
3.197059
20
4.526536
11
3.197059
21
4.526536
0
LINE
8
hole
62
5
10
3.197059
20
4.526536
11
3.212759
21
4.497167
0
LINE
8
hole
62
5
10
3.212759
20
4.497167
11
3.212759
21
4.497167
0
LINE
8
hole
62
5
10
3.212759
20
4.497167
11
3.227540
21
4.467320
0
LINE
8
hole
62
5
10
3.227540
20
4.467320
11
3.227540
21
4.467320
0
LINE
8
hole
62
5
10
3.227540
20
4.467320
11
3.241519
21
4.437103
0
LINE
8
hole
62
5
10
3.241519
20
4.437103
11
3.241519
21
4.437103
0
LINE
8
hole
62
5
10
3.241519
20
4.437103
11
3.254436
21
4.407518
0
LINE
8
hole
62
5
10
3.254436
20
4.407518
11
3.254436
21
4.407518
0
LINE
8
hole
62
5
10
3.254436
20
4.407518
11
3.267626
21
4.375811
0
LINE
8
hole
62
5
10
3.267626
20
4.375811
11
3.267626
21
4.375811
0
LINE
8
hole
62
5
10
3.267626
20
4.375811
11
3.280012
21
4.344902
0
LINE
8
hole
62
5
10
3.280012
20
4.344902
11
3.280012
21
4.344902
0
LINE
8
hole
62
5
10
3.280012
20
4.344902
11
3.292138
21
4.313890
0
LINE
8
hole
62
5
10
3.292138
20
4.313890
11
3.292139
21
4.313890
0
LINE
8
hole
62
5
10
3.292139
20
4.313890
11
3.304145
21
4.282825
0
LINE
8
hole
62
5
10
3.304145
20
4.282825
11
3.304145
21
4.282825
0
LINE
8
hole
62
5
10
3.304145
20
4.282825
11
3.316169
21
4.251767
0
LINE
8
hole
62
5
10
3.316169
20
4.251767
11
3.316169
21
4.251767
0
LINE
8
hole
62
5
10
3.316169
20
4.251767
11
3.328344
21
4.220768
0
LINE
8
hole
62
5
10
3.328344
20
4.220768
11
3.328344
21
4.220768
0
LINE
8
hole
62
5
10
3.328344
20
4.220768
11
3.340801
21
4.189884
0
LINE
8
hole
62
5
10
3.340801
20
4.189884
11
3.340801
21
4.189884
0
LINE
8
hole
62
5
10
3.340801
20
4.189884
11
3.344571
21
4.180902
0
LINE
8
hole
62
5
10
3.344571
20
4.180902
11
3.363321
21
4.162152
0
LINE
8
hole
62
5
10
3.363321
20
4.162152
11
3.948453
21
4.162152
0
LINE
8
hole
62
5
10
3.948453
20
4.162152
11
3.968730
21
4.175700
0
LINE
8
hole
62
5
10
3.968730
20
4.175700
11
3.992647
21
4.180458
0
LINE
8
hole
62
5
10
3.992647
20
4.180458
11
4.016565
21
4.175700
0
LINE
8
hole
62
5
10
4.016565
20
4.175700
11
4.036841
21
4.162152
0
LINE
8
hole
62
5
10
4.036841
20
4.162152
11
4.050390
21
4.141875
0
LINE
8
hole
62
5
10
4.050390
20
4.141875
11
4.055147
21
4.117958
0
LINE
8
hole
62
5
10
4.055147
20
4.117958
11
4.050390
21
4.094040
0
LINE
8
hole
62
5
10
4.050390
20
4.094040
11
4.036841
21
4.073764
0
LINE
8
hole
62
5
10
4.036841
20
4.073764
11
4.036841
21
3.875540
0
LINE
8
hole
62
5
10
4.036841
20
3.875540
11
4.050390
21
3.855264
0
LINE
8
hole
62
5
10
4.050390
20
3.855264
11
4.055147
21
3.831346
0
LINE
8
hole
62
5
10
4.055147
20
3.831346
11
4.050390
21
3.807428
0
LINE
8
hole
62
5
10
4.050390
20
3.807428
11
4.036841
21
3.787152
0
LINE
8
hole
62
5
10
4.036841
20
3.787152
11
4.016565
21
3.773604
0
LINE
8
hole
62
5
10
4.016565
20
3.773604
11
3.992647
21
3.768846
0
LINE
8
hole
62
5
10
3.992647
20
3.768846
11
3.968729
21
3.773604
0
LINE
8
hole
62
5
10
3.968729
20
3.773604
11
3.948453
21
3.787152
0
LINE
8
hole
62
5
10
3.948453
20
3.787152
11
3.609389
21
3.787152
0
LINE
8
hole
62
5
10
3.609389
20
3.787152
11
3.590639
21
3.768402
0
LINE
8
hole
62
5
10
3.590639
20
3.768402
11
3.590639
21
3.768402
0
LINE
8
hole
62
5
10
3.590639
20
3.768402
11
3.595492
21
3.761991
0
LINE
8
hole
62
5
10
3.595492
20
3.761991
11
3.595492
21
3.761991
0
LINE
8
hole
62
5
10
3.595492
20
3.761991
11
3.615847
21
3.735631
0
LINE
8
hole
62
5
10
3.615847
20
3.735631
11
3.615847
21
3.735631
0
LINE
8
hole
62
5
10
3.615847
20
3.735631
11
3.636419
21
3.709445
0
LINE
8
hole
62
5
10
3.636419
20
3.709445
11
3.636419
21
3.709445
0
LINE
8
hole
62
5
10
3.636419
20
3.709445
11
3.657181
21
3.683405
0
LINE
8
hole
62
5
10
3.657181
20
3.683405
11
3.657181
21
3.683405
0
LINE
8
hole
62
5
10
3.657181
20
3.683405
11
3.678109
21
3.657490
0
LINE
8
hole
62
5
10
3.678109
20
3.657490
11
3.678109
21
3.657490
0
LINE
8
hole
62
5
10
3.678109
20
3.657490
11
3.699193
21
3.631707
0
LINE
8
hole
62
5
10
3.699193
20
3.631707
11
3.699193
21
3.631707
0
LINE
8
hole
62
5
10
3.699193
20
3.631707
11
3.720428
21
3.606077
0
LINE
8
hole
62
5
10
3.720428
20
3.606077
11
3.720428
21
3.606077
0
LINE
8
hole
62
5
10
3.720428
20
3.606077
11
3.741843
21
3.580586
0
LINE
8
hole
62
5
10
3.741843
20
3.580586
11
3.741843
21
3.580586
0
LINE
8
hole
62
5
10
3.741843
20
3.580586
11
3.763460
21
3.555226
0
LINE
8
hole
62
5
10
3.763460
20
3.555226
11
3.763460
21
3.555226
0
LINE
8
hole
62
5
10
3.763460
20
3.555226
11
3.785250
21
3.530039
0
LINE
8
hole
62
5
10
3.785250
20
3.530039
11
3.785250
21
3.530039
0
LINE
8
hole
62
5
10
3.785250
20
3.530039
11
3.807224
21
3.505015
0
LINE
8
hole
62
5
10
3.807224
20
3.505015
11
3.807224
21
3.505015
0
LINE
8
hole
62
5
10
3.807224
20
3.505015
11
3.830416
21
3.479033
0
LINE
8
hole
62
5
10
3.830416
20
3.479033
11
3.830416
21
3.479033
0
LINE
8
hole
62
5
10
3.830416
20
3.479033
11
3.851800
21
3.455536
0
LINE
8
hole
62
5
10
3.851800
20
3.455536
11
3.851800
21
3.455536
0
LINE
8
hole
62
5
10
3.851800
20
3.455536
11
3.874409
21
3.431121
0
LINE
8
hole
62
5
10
3.874409
20
3.431121
11
3.874409
21
3.431121
0
LINE
8
hole
62
5
10
3.874409
20
3.431121
11
3.897172
21
3.406767
0
LINE
8
hole
62
5
10
3.897172
20
3.406767
11
3.897172
21
3.406767
0
LINE
8
hole
62
5
10
3.897172
20
3.406767
11
3.920109
21
3.382555
0
LINE
8
hole
62
5
10
3.920109
20
3.382555
11
3.920109
21
3.382555
0
LINE
8
hole
62
5
10
3.920109
20
3.382555
11
3.943573
21
3.358936
0
LINE
8
hole
62
5
10
3.943573
20
3.358936
11
3.943573
21
3.358935
0
LINE
8
hole
62
5
10
3.943573
20
3.358935
11
3.967574
21
3.335858
0
LINE
8
hole
62
5
10
3.967574
20
3.335858
11
3.967574
21
3.335858
0
LINE
8
hole
62
5
10
3.967574
20
3.335858
11
3.990727
21
3.311920
0
LINE
8
hole
62
5
10
3.990727
20
3.311920
11
3.990727
21
3.311920
0
LINE
8
hole
62
5
10
3.990727
20
3.311920
11
4.011274
21
3.285673
0
LINE
8
hole
62
5
10
4.011274
20
3.285673
11
4.011274
21
3.285673
0
LINE
8
hole
62
5
10
4.011274
20
3.285673
11
4.026473
21
3.257523
0
LINE
8
hole
62
5
10
4.026473
20
3.257523
11
4.026473
21
3.257523
0
LINE
8
hole
62
5
10
4.026473
20
3.257523
11
4.035339
21
3.224528
0
LINE
8
hole
62
5
10
4.035339
20
3.224528
11
4.035339
21
3.224528
0
LINE
8
hole
62
5
10
4.035339
20
3.224528
11
4.036349
21
3.191196
0
LINE
8
hole
62
5
10
4.036349
20
3.191196
11
4.036349
21
3.191196
0
LINE
8
hole
62
5
10
4.036349
20
3.191196
11
4.030184
21
3.158495
0
LINE
8
hole
62
5
10
4.030184
20
3.158495
11
4.030184
21
3.158495
0
LINE
8
hole
62
5
10
4.030184
20
3.158495
11
4.017219
21
3.127927
0
LINE
8
hole
62
5
10
4.017219
20
3.127927
11
4.017219
21
3.127927
0
LINE
8
hole
62
5
10
4.017219
20
3.127927
11
3.997929
21
3.100819
0
LINE
8
hole
62
5
10
3.997929
20
3.100819
11
3.997929
21
3.100819
0
LINE
8
hole
62
5
10
3.997929
20
3.100819
11
3.973219
21
3.078562
0
LINE
8
hole
62
5
10
3.973219
20
3.078562
11
3.973219
21
3.078562
0
LINE
8
hole
62
5
10
3.973219
20
3.078562
11
3.944254
21
3.062495
0
LINE
8
hole
62
5
10
3.944254
20
3.062495
11
3.944254
21
3.062495
0
LINE
8
hole
62
5
10
3.944254
20
3.062495
11
3.912458
21
3.052885
0
LINE
8
hole
62
5
10
3.912458
20
3.052885
11
3.912458
21
3.052885
0
LINE
8
hole
62
5
10
3.912458
20
3.052885
11
3.879425
21
3.049125
0
LINE
8
hole
62
5
10
3.879425
20
3.049125
11
3.879425
21
3.049125
0
LINE
8
hole
62
5
10
3.879425
20
3.049125
11
3.846094
21
3.049266
0
LINE
8
hole
62
5
10
3.846094
20
3.049266
11
3.846094
21
3.049266
0
LINE
8
hole
62
5
10
3.846094
20
3.049266
11
3.812746
21
3.050090
0
LINE
8
hole
62
5
10
3.812746
20
3.050090
11
3.812746
21
3.050090
0
LINE
8
hole
62
5
10
3.812746
20
3.050090
11
3.777964
21
3.050042
0
LINE
8
hole
62
5
10
3.777964
20
3.050042
11
3.777964
21
3.050042
0
LINE
8
hole
62
5
10
3.777964
20
3.050042
11
3.746154
21
3.049812
0
LINE
8
hole
62
5
10
3.746154
20
3.049812
11
3.746154
21
3.049812
0
LINE
8
hole
62
5
10
3.746154
20
3.049812
11
3.712827
21
3.049805
0
LINE
8
hole
62
5
10
3.712827
20
3.049805
11
3.712827
21
3.049805
0
LINE
8
hole
62
5
10
3.712827
20
3.049805
11
3.679542
21
3.049874
0
LINE
8
hole
62
5
10
3.679542
20
3.049874
11
3.679542
21
3.049873
0
LINE
8
hole
62
5
10
3.679542
20
3.049873
11
3.646244
21
3.049881
0
LINE
8
hole
62
5
10
3.646244
20
3.049881
11
3.646244
21
3.049881
0
LINE
8
hole
62
5
10
3.646244
20
3.049881
11
3.612935
21
3.049862
0
LINE
8
hole
62
5
10
3.612935
20
3.049862
11
3.612935
21
3.049862
0
LINE
8
hole
62
5
10
3.612935
20
3.049862
11
3.579631
21
3.049858
0
LINE
8
hole
62
5
10
3.579631
20
3.049858
11
3.579631
21
3.049858
0
LINE
8
hole
62
5
10
3.579631
20
3.049858
11
3.546363
21
3.049863
0
LINE
8
hole
62
5
10
3.546363
20
3.049863
11
3.546363
21
3.049863
0
LINE
8
hole
62
5
10
3.546363
20
3.049863
11
3.513025
21
3.049864
0
LINE
8
hole
62
5
10
3.513025
20
3.049864
11
3.513025
21
3.049864
0
LINE
8
hole
62
5
10
3.513025
20
3.049864
11
3.480786
21
3.049864
0
LINE
8
hole
62
5
10
3.480786
20
3.049864
11
3.480786
21
3.049864
0
LINE
8
hole
62
5
10
3.480786
20
3.049864
11
3.446418
21
3.049862
0
LINE
8
hole
62
5
10
3.446418
20
3.049862
11
3.446418
21
3.049862
0
LINE
8
hole
62
5
10
3.446418
20
3.049862
11
3.413115
21
3.049863
0
LINE
8
hole
62
5
10
3.413115
20
3.049863
11
3.413115
21
3.049863
0
LINE
8
hole
62
5
10
3.413115
20
3.049863
11
3.379811
21
3.049864
0
LINE
8
hole
62
5
10
3.379811
20
3.049864
11
3.379811
21
3.049864
0
LINE
8
hole
62
5
10
3.379811
20
3.049864
11
3.346508
21
3.049863
0
LINE
8
hole
62
5
10
3.346508
20
3.049863
11
3.346508
21
3.049863
0
LINE
8
hole
62
5
10
3.346508
20
3.049863
11
3.313204
21
3.049863
0
LINE
8
hole
62
5
10
3.313204
20
3.049863
11
3.313204
21
3.049863
0
LINE
8
hole
62
5
10
3.313204
20
3.049863
11
3.279901
21
3.049863
0
LINE
8
hole
62
5
10
3.279901
20
3.049863
11
3.279901
21
3.049863
0
LINE
8
hole
62
5
10
3.279901
20
3.049863
11
3.246597
21
3.049863
0
LINE
8
hole
62
5
10
3.246597
20
3.049863
11
3.246597
21
3.049863
0
LINE
8
hole
62
5
10
3.246597
20
3.049863
11
3.213294
21
3.049863
0
LINE
8
hole
62
5
10
3.213294
20
3.049863
11
3.213294
21
3.049863
0
LINE
8
hole
62
5
10
3.213294
20
3.049863
11
3.179991
21
3.049863
0
LINE
8
hole
62
5
10
3.179991
20
3.049863
11
3.179991
21
3.049863
0
LINE
8
hole
62
5
10
3.179991
20
3.049863
11
3.146687
21
3.049863
0
LINE
8
hole
62
5
10
3.146687
20
3.049863
11
3.146687
21
3.049863
0
LINE
8
hole
62
5
10
3.146687
20
3.049863
11
3.113383
21
3.049863
0
LINE
8
hole
62
5
10
3.113383
20
3.049863
11
3.113383
21
3.049863
0
LINE
8
hole
62
5
10
3.113383
20
3.049863
11
3.078600
21
3.049863
0
LINE
8
hole
62
5
10
3.078600
20
3.049863
11
3.078600
21
3.049863
0
LINE
8
hole
62
5
10
3.078600
20
3.049863
11
3.046776
21
3.049863
0
LINE
8
hole
62
5
10
3.046776
20
3.049863
11
3.046776
21
3.049863
0
LINE
8
hole
62
5
10
3.046776
20
3.049863
11
3.013473
21
3.049863
0
LINE
8
hole
62
5
10
3.013473
20
3.049863
11
3.013473
21
3.049863
0
LINE
8
hole
62
5
10
3.013473
20
3.049863
11
2.980170
21
3.049863
0
LINE
8
hole
62
5
10
2.980170
20
3.049863
11
2.980170
21
3.049863
0
LINE
8
hole
62
5
10
2.980170
20
3.049863
11
2.946866
21
3.049863
0
LINE
8
hole
62
5
10
2.946866
20
3.049863
11
2.946866
21
3.049863
0
LINE
8
hole
62
5
10
2.946866
20
3.049863
11
2.913563
21
3.049863
0
LINE
8
hole
62
5
10
2.913563
20
3.049863
11
2.913563
21
3.049863
0
LINE
8
hole
62
5
10
2.913563
20
3.049863
11
2.880259
21
3.049863
0
LINE
8
hole
62
5
10
2.880259
20
3.049863
11
2.880259
21
3.049863
0
LINE
8
hole
62
5
10
2.880259
20
3.049863
11
2.846985
21
3.049863
0
LINE
8
hole
62
5
10
2.846985
20
3.049863
11
2.846985
21
3.049863
0
LINE
8
hole
62
5
10
2.846985
20
3.049863
11
2.813652
21
3.049863
0
LINE
8
hole
62
5
10
2.813652
20
3.049863
11
2.813652
21
3.049863
0
LINE
8
hole
62
5
10
2.813652
20
3.049863
11
2.781408
21
3.049863
0
LINE
8
hole
62
5
10
2.781408
20
3.049863
11
2.781408
21
3.049863
0
LINE
8
hole
62
5
10
2.781408
20
3.049863
11
2.747045
21
3.049863
0
LINE
8
hole
62
5
10
2.747045
20
3.049863
11
2.747045
21
3.049863
0
LINE
8
hole
62
5
10
2.747045
20
3.049863
11
2.713742
21
3.049863
0
LINE
8
hole
62
5
10
2.713742
20
3.049863
11
2.713742
21
3.049863
0
LINE
8
hole
62
5
10
2.713742
20
3.049863
11
2.680438
21
3.049863
0
LINE
8
hole
62
5
10
2.680438
20
3.049863
11
2.680438
21
3.049863
0
LINE
8
hole
62
5
10
2.680438
20
3.049863
11
2.647135
21
3.049863
0
LINE
8
hole
62
5
10
2.647135
20
3.049863
11
2.647135
21
3.049863
0
LINE
8
hole
62
5
10
2.647135
20
3.049863
11
2.613831
21
3.049863
0
LINE
8
hole
62
5
10
2.613831
20
3.049863
11
2.613831
21
3.049863
0
LINE
8
hole
62
5
10
2.613831
20
3.049863
11
2.580528
21
3.049863
0
LINE
8
hole
62
5
10
2.580528
20
3.049863
11
2.580528
21
3.049863
0
LINE
8
hole
62
5
10
2.580528
20
3.049863
11
2.547225
21
3.049863
0
LINE
8
hole
62
5
10
2.547225
20
3.049863
11
2.547225
21
3.049863
0
LINE
8
hole
62
5
10
2.547225
20
3.049863
11
2.513921
21
3.049863
0
LINE
8
hole
62
5
10
2.513921
20
3.049863
11
2.513921
21
3.049863
0
LINE
8
hole
62
5
10
2.513921
20
3.049863
11
2.480618
21
3.049863
0
LINE
8
hole
62
5
10
2.480618
20
3.049863
11
2.480618
21
3.049863
0
LINE
8
hole
62
5
10
2.480618
20
3.049863
11
2.447314
21
3.049863
0
LINE
8
hole
62
5
10
2.447314
20
3.049863
11
2.447314
21
3.049863
0
LINE
8
hole
62
5
10
2.447314
20
3.049863
11
2.414011
21
3.049863
0
LINE
8
hole
62
5
10
2.414011
20
3.049863
11
2.414011
21
3.049863
0
LINE
8
hole
62
5
10
2.414011
20
3.049863
11
2.379222
21
3.049863
0
LINE
8
hole
62
5
10
2.379222
20
3.049863
11
2.379222
21
3.049863
0
LINE
8
hole
62
5
10
2.379222
20
3.049863
11
2.347404
21
3.049863
0
LINE
8
hole
62
5
10
2.347404
20
3.049863
11
2.347404
21
3.049863
0
LINE
8
hole
62
5
10
2.347404
20
3.049863
11
2.314100
21
3.049863
0
LINE
8
hole
62
5
10
2.314100
20
3.049863
11
2.314100
21
3.049863
0
LINE
8
hole
62
5
10
2.314100
20
3.049863
11
2.280797
21
3.049863
0
LINE
8
hole
62
5
10
2.280797
20
3.049863
11
2.280797
21
3.049863
0
LINE
8
hole
62
5
10
2.280797
20
3.049863
11
2.247493
21
3.049863
0
LINE
8
hole
62
5
10
2.247493
20
3.049863
11
2.247493
21
3.049863
0
LINE
8
hole
62
5
10
2.247493
20
3.049863
11
2.214190
21
3.049863
0
LINE
8
hole
62
5
10
2.214190
20
3.049863
11
2.214190
21
3.049863
0
LINE
8
hole
62
5
10
2.214190
20
3.049863
11
2.180888
21
3.049864
0
LINE
8
hole
62
5
10
2.180888
20
3.049864
11
2.180888
21
3.049864
0
LINE
8
hole
62
5
10
2.180888
20
3.049864
11
2.147607
21
3.049863
0
LINE
8
hole
62
5
10
2.147607
20
3.049863
11
2.147607
21
3.049863
0
LINE
8
hole
62
5
10
2.147607
20
3.049863
11
2.114275
21
3.049863
0
LINE
8
hole
62
5
10
2.114275
20
3.049863
11
2.114275
21
3.049863
0
LINE
8
hole
62
5
10
2.114275
20
3.049863
11
2.082030
21
3.049863
0
LINE
8
hole
62
5
10
2.082030
20
3.049863
11
2.082030
21
3.049863
0
LINE
8
hole
62
5
10
2.082030
20
3.049863
11
2.047685
21
3.049864
0
LINE
8
hole
62
5
10
2.047685
20
3.049864
11
2.047684
21
3.049864
0
LINE
8
hole
62
5
10
2.047684
20
3.049864
11
2.014375
21
3.049864
0
LINE
8
hole
62
5
10
2.014375
20
3.049864
11
2.014375
21
3.049864
0
LINE
8
hole
62
5
10
2.014375
20
3.049864
11
1.981062
21
3.049860
0
LINE
8
hole
62
5
10
1.981062
20
3.049860
11
1.981062
21
3.049860
0
LINE
8
hole
62
5
10
1.981062
20
3.049860
11
1.947761
21
3.049860
0
LINE
8
hole
62
5
10
1.947761
20
3.049860
11
1.947761
21
3.049860
0
LINE
8
hole
62
5
10
1.947761
20
3.049860
11
1.914466
21
3.049875
0
LINE
8
hole
62
5
10
1.914466
20
3.049875
11
1.914466
21
3.049875
0
LINE
8
hole
62
5
10
1.914466
20
3.049875
11
1.881162
21
3.049877
0
LINE
8
hole
62
5
10
1.881162
20
3.049877
11
1.881162
21
3.049877
0
LINE
8
hole
62
5
10
1.881162
20
3.049877
11
1.847847
21
3.049826
0
LINE
8
hole
62
5
10
1.847847
20
3.049826
11
1.847847
21
3.049826
0
LINE
8
hole
62
5
10
1.847847
20
3.049826
11
1.814540
21
3.049807
0
LINE
8
hole
62
5
10
1.814540
20
3.049807
11
1.814540
21
3.049807
0
LINE
8
hole
62
5
10
1.814540
20
3.049807
11
1.781269
21
3.049979
0
LINE
8
hole
62
5
10
1.781269
20
3.049979
11
1.781269
21
3.049979
0
LINE
8
hole
62
5
10
1.781269
20
3.049979
11
1.747987
21
3.050093
0
LINE
8
hole
62
5
10
1.747987
20
3.050093
11
1.747987
21
3.050093
0
LINE
8
hole
62
5
10
1.747987
20
3.050093
11
1.714578
21
3.049539
0
LINE
8
hole
62
5
10
1.714578
20
3.049539
11
1.714578
21
3.049539
0
LINE
8
hole
62
5
10
1.714578
20
3.049539
11
1.679722
21
3.049716
0
LINE
8
hole
62
5
10
1.679722
20
3.049716
11
1.679722
21
3.049716
0
LINE
8
hole
62
5
10
1.679722
20
3.049716
11
1.648412
21
3.054169
0
LINE
8
hole
62
5
10
1.648412
20
3.054169
11
1.648412
21
3.054169
0
LINE
8
hole
62
5
10
1.648412
20
3.054169
11
1.617146
21
3.065475
0
LINE
8
hole
62
5
10
1.617146
20
3.065475
11
1.617146
21
3.065475
0
LINE
8
hole
62
5
10
1.617146
20
3.065475
11
1.589036
21
3.083213
0
LINE
8
hole
62
5
10
1.589036
20
3.083213
11
1.589036
21
3.083213
0
LINE
8
hole
62
5
10
1.589036
20
3.083213
11
1.565522
21
3.106632
0
LINE
8
hole
62
5
10
1.565522
20
3.106632
11
1.565522
21
3.106632
0
LINE
8
hole
62
5
10
1.565522
20
3.106632
11
1.547494
21
3.134639
0
LINE
8
hole
62
5
10
1.547494
20
3.134639
11
1.547494
21
3.134639
0
LINE
8
hole
62
5
10
1.547494
20
3.134639
11
1.535830
21
3.165936
0
LINE
8
hole
62
5
10
1.535830
20
3.165936
11
1.535830
21
3.165936
0
LINE
8
hole
62
5
10
1.535830
20
3.165936
11
1.531592
21
3.198745
0
LINE
8
hole
62
5
10
1.531592
20
3.198745
11
1.531592
21
3.198745
0
LINE
8
hole
62
5
10
1.531592
20
3.198745
11
1.535189
21
3.231512
0
LINE
8
hole
62
5
10
1.535189
20
3.231512
11
1.535189
21
3.231512
0
LINE
8
hole
62
5
10
1.535189
20
3.231512
11
1.543999
21
3.262578
0
LINE
8
hole
62
5
10
1.543999
20
3.262578
11
1.543999
21
3.262578
0
LINE
8
hole
62
5
10
1.543999
20
3.262578
11
1.556301
21
3.294695
0
LINE
8
hole
62
5
10
1.556301
20
3.294695
11
1.556301
21
3.294695
0
LINE
8
hole
62
5
10
1.556301
20
3.294695
11
1.569341
21
3.325318
0
LINE
8
hole
62
5
10
1.569341
20
3.325318
11
1.569341
21
3.325318
0
LINE
8
hole
62
5
10
1.569341
20
3.325318
11
1.582228
21
3.356023
0
LINE
8
hole
62
5
10
1.582228
20
3.356023
11
1.582228
21
3.356023
0
LINE
8
hole
62
5
10
1.582228
20
3.356023
11
1.594839
21
3.386856
0
LINE
8
hole
62
5
10
1.594839
20
3.386856
11
1.594839
21
3.386857
0
LINE
8
hole
62
5
10
1.594839
20
3.386857
11
1.607520
21
3.417656
0
LINE
8
hole
62
5
10
1.607520
20
3.417656
11
1.607520
21
3.417656
0
LINE
8
hole
62
5
10
1.607520
20
3.417656
11
1.620339
21
3.448391
0
LINE
8
hole
62
5
10
1.620339
20
3.448391
11
1.620339
21
3.448391
0
LINE
8
hole
62
5
10
1.620339
20
3.448391
11
1.633206
21
3.479099
0
LINE
8
hole
62
5
10
1.633206
20
3.479099
11
1.633206
21
3.479099
0
LINE
8
hole
62
5
10
1.633206
20
3.479099
11
1.646100
21
3.509805
0
LINE
8
hole
62
5
10
1.646100
20
3.509805
11
1.646100
21
3.509805
0
LINE
8
hole
62
5
10
1.646100
20
3.509805
11
1.659049
21
3.540490
0
LINE
8
hole
62
5
10
1.659049
20
3.540490
11
1.659049
21
3.540490
0
LINE
8
hole
62
5
10
1.659049
20
3.540490
11
1.672063
21
3.571146
0
LINE
8
hole
62
5
10
1.672063
20
3.571146
11
1.672063
21
3.571146
0
LINE
8
hole
62
5
10
1.672063
20
3.571146
11
1.685139
21
3.601774
0
LINE
8
hole
62
5
10
1.685139
20
3.601774
11
1.685139
21
3.601774
0
LINE
8
hole
62
5
10
1.685139
20
3.601774
11
1.698870
21
3.633753
0
LINE
8
hole
62
5
10
1.698870
20
3.633753
11
1.698870
21
3.633753
0
LINE
8
hole
62
5
10
1.698870
20
3.633753
11
1.711483
21
3.662950
0
LINE
8
hole
62
5
10
1.711483
20
3.662950
11
1.711483
21
3.662950
0
LINE
8
hole
62
5
10
1.711483
20
3.662950
11
1.724759
21
3.693493
0
LINE
8
hole
62
5
10
1.724759
20
3.693493
11
1.724759
21
3.693493
0
LINE
8
hole
62
5
10
1.724759
20
3.693493
11
1.738107
21
3.724004
0
LINE
8
hole
62
5
10
1.738107
20
3.724004
11
1.738107
21
3.724004
0
LINE
8
hole
62
5
10
1.738107
20
3.724004
11
1.751531
21
3.754483
0
LINE
8
hole
62
5
10
1.751531
20
3.754483
11
1.751531
21
3.754483
0
LINE
8
hole
62
5
10
1.751531
20
3.754483
11
1.765040
21
3.784923
0
LINE
8
hole
62
5
10
1.765040
20
3.784923
11
1.765040
21
3.784923
0
LINE
8
hole
62
5
10
1.765040
20
3.784923
11
1.778646
21
3.815321
0
LINE
8
hole
62
5
10
1.778646
20
3.815321
11
1.778646
21
3.815321
0
LINE
8
hole
62
5
10
1.778646
20
3.815321
11
1.792366
21
3.845666
0
LINE
8
hole
62
5
10
1.792366
20
3.845666
11
1.792366
21
3.845666
0
LINE
8
hole
62
5
10
1.792366
20
3.845666
11
1.806218
21
3.875952
0
LINE
8
hole
62
5
10
1.806218
20
3.875952
11
1.806218
21
3.875952
0
LINE
8
hole
62
5
10
1.806218
20
3.875952
11
1.819778
21
3.905227
0
LINE
8
hole
62
5
10
1.819778
20
3.905227
11
1.819778
21
3.905227
0
LINE
8
hole
62
5
10
1.819778
20
3.905227
11
1.834380
21
3.936312
0
LINE
8
hole
62
5
10
1.834380
20
3.936312
11
1.834380
21
3.936312
0
LINE
8
hole
62
5
10
1.834380
20
3.936312
11
1.848721
21
3.966370
0
LINE
8
hole
62
5
10
1.848721
20
3.966370
11
1.848721
21
3.966370
0
LINE
8
hole
62
5
10
1.848721
20
3.966370
11
1.863258
21
3.996333
0
LINE
8
hole
62
5
10
1.863258
20
3.996333
11
1.863258
21
3.996333
0
LINE
8
hole
62
5
10
1.863258
20
3.996333
11
1.878007
21
4.026192
0
LINE
8
hole
62
5
10
1.878007
20
4.026192
11
1.878007
21
4.026192
0
LINE
8
hole
62
5
10
1.878007
20
4.026192
11
1.892985
21
4.055937
0
LINE
8
hole
62
5
10
1.892985
20
4.055937
11
1.892985
21
4.055937
0
LINE
8
hole
62
5
10
1.892985
20
4.055937
11
1.908208
21
4.085558
0
LINE
8
hole
62
5
10
1.908208
20
4.085558
11
1.908208
21
4.085558
0
LINE
8
hole
62
5
10
1.908208
20
4.085558
11
1.923693
21
4.115042
0
LINE
8
hole
62
5
10
1.923693
20
4.115042
11
1.923693
21
4.115042
0
LINE
8
hole
62
5
10
1.923693
20
4.115042
11
1.939456
21
4.144379
0
LINE
8
hole
62
5
10
1.939456
20
4.144379
11
1.939456
21
4.144379
0
LINE
8
hole
62
5
10
1.939456
20
4.144379
11
1.955514
21
4.173555
0
LINE
8
hole
62
5
10
1.955514
20
4.173555
11
1.955514
21
4.173555
0
LINE
8
hole
62
5
10
1.955514
20
4.173555
11
1.971885
21
4.202557
0
LINE
8
hole
62
5
10
1.971885
20
4.202557
11
1.971885
21
4.202557
0
LINE
8
hole
62
5
10
1.971885
20
4.202557
11
1.988585
21
4.231371
0
LINE
8
hole
62
5
10
1.988585
20
4.231371
11
1.988585
21
4.231371
0
LINE
8
hole
62
5
10
1.988585
20
4.231371
11
2.006419
21
4.261262
0
LINE
8
hole
62
5
10
2.006419
20
4.261262
11
2.006419
21
4.261262
0
LINE
8
hole
62
5
10
2.006419
20
4.261262
11
2.023077
21
4.288349
0
LINE
8
hole
62
5
10
2.023077
20
4.288349
11
2.023077
21
4.288349
0
LINE
8
hole
62
5
10
2.023077
20
4.288349
11
2.040926
21
4.316464
0
LINE
8
hole
62
5
10
2.040926
20
4.316464
11
2.040926
21
4.316464
0
LINE
8
hole
62
5
10
2.040926
20
4.316464
11
2.059213
21
4.344298
0
LINE
8
hole
62
5
10
2.059213
20
4.344298
11
2.059213
21
4.344298
0
LINE
8
hole
62
5
10
2.059213
20
4.344298
11
2.077959
21
4.371823
0
LINE
8
hole
62
5
10
2.077959
20
4.371823
11
2.077959
21
4.371823
0
LINE
8
hole
62
5
10
2.077959
20
4.371823
11
2.097189
21
4.399014
0
LINE
8
hole
62
5
10
2.097189
20
4.399014
11
2.097190
21
4.399014
0
LINE
8
hole
62
5
10
2.097190
20
4.399014
11
2.116921
21
4.425842
0
LINE
8
hole
62
5
10
2.116921
20
4.425842
11
2.116921
21
4.425842
0
LINE
8
hole
62
5
10
2.116921
20
4.425842
11
2.137167
21
4.452276
0
LINE
8
hole
62
5
10
2.137167
20
4.452276
11
2.137167
21
4.452276
0
LINE
8
hole
62
5
10
2.137167
20
4.452276
11
2.157952
21
4.478305
0
LINE
8
hole
62
5
10
2.157952
20
4.478305
11
2.157952
21
4.478305
0
LINE
8
hole
62
5
10
2.157952
20
4.478305
11
2.178602
21
4.503099
0
LINE
8
hole
62
5
10
2.178602
20
4.503099
11
2.178602
21
4.503099
0
LINE
8
hole
62
5
10
2.178602
20
4.503099
11
2.201142
21
4.529003
0
LINE
8
hole
62
5
10
2.201142
20
4.529003
11
2.201142
21
4.529003
0
LINE
8
hole
62
5
10
2.201142
20
4.529003
11
2.223561
21
4.553630
0
LINE
8
hole
62
5
10
2.223561
20
4.553630
11
2.223561
21
4.553630
0
LINE
8
hole
62
5
10
2.223561
20
4.553630
11
2.246532
21
4.577742
0
LINE
8
hole
62
5
10
2.246532
20
4.577742
11
2.246532
21
4.577743
0
LINE
8
hole
62
5
10
2.246532
20
4.577743
11
2.270047
21
4.601325
0
LINE
8
hole
62
5
10
2.270047
20
4.601325
11
2.270047
21
4.601325
0
LINE
8
hole
62
5
10
2.270047
20
4.601325
11
2.294098
21
4.624360
0
LINE
8
hole
62
5
10
2.294098
20
4.624360
11
2.294098
21
4.624360
0
LINE
8
hole
62
5
10
2.294098
20
4.624360
11
2.318687
21
4.646820
0
LINE
8
hole
62
5
10
2.318687
20
4.646820
11
2.318687
21
4.646820
0
LINE
8
hole
62
5
10
2.318687
20
4.646820
11
2.343821
21
4.668667
0
LINE
8
hole
62
5
10
2.343821
20
4.668667
11
2.343821
21
4.668667
0
LINE
8
hole
62
5
10
2.343821
20
4.668667
11
2.369515
21
4.689854
0
LINE
8
hole
62
5
10
2.369515
20
4.689854
11
2.369515
21
4.689854
0
LINE
8
hole
62
5
10
2.369515
20
4.689854
11
2.395791
21
4.710314
0
LINE
8
hole
62
5
10
2.395791
20
4.710314
11
2.395791
21
4.710314
0
LINE
8
hole
62
5
10
2.395791
20
4.710314
11
2.422672
21
4.729972
0
LINE
8
hole
62
5
10
2.422672
20
4.729972
11
2.422672
21
4.729972
0
LINE
8
hole
62
5
10
2.422672
20
4.729972
11
2.450182
21
4.748740
0
LINE
8
hole
62
5
10
2.450182
20
4.748740
11
2.450182
21
4.748740
0
LINE
8
hole
62
5
10
2.450182
20
4.748740
11
2.479637
21
4.767292
0
LINE
8
hole
62
5
10
2.479637
20
4.767292
11
2.479637
21
4.767292
0
LINE
8
hole
62
5
10
2.479637
20
4.767292
11
2.507184
21
4.783162
0
LINE
8
hole
62
5
10
2.507184
20
4.783162
11
2.507185
21
4.783162
0
LINE
8
hole
62
5
10
2.507185
20
4.783162
11
2.536722
21
4.798540
0
LINE
8
hole
62
5
10
2.536722
20
4.798540
11
2.536722
21
4.798540
0
LINE
8
hole
62
5
10
2.536722
20
4.798540
11
2.566970
21
4.812466
0
LINE
8
hole
62
5
10
2.566970
20
4.812466
11
2.566970
21
4.812466
0
LINE
8
hole
62
5
10
2.566970
20
4.812466
11
2.597928
21
4.824733
0
LINE
8
hole
62
5
10
2.597928
20
4.824733
11
2.597928
21
4.824733
0
LINE
8
hole
62
5
10
2.597928
20
4.824733
11
2.629572
21
4.835097
0
LINE
8
hole
62
5
10
2.629572
20
4.835097
11
2.629572
21
4.835097
0
LINE
8
hole
62
5
10
2.629572
20
4.835097
11
2.661851
21
4.843285
0
LINE
8
hole
62
5
10
2.661851
20
4.843285
11
2.661851
21
4.843285
0
LINE
8
hole
62
5
10
2.661851
20
4.843285
11
2.694651
21
4.848969
0
LINE
8
hole
62
5
10
2.694651
20
4.848969
11
2.694651
21
4.848969
0
LINE
8
hole
62
5
10
2.694651
20
4.848969
11
2.727826
21
4.851831
0
LINE
8
hole
62
5
10
2.727826
20
4.851831
11
2.727826
21
4.851831
0
LINE
8
hole
62
5
10
2.727826
20
4.851831
11
2.760081
21
4.851691
0
LINE
8
hole
62
5
10
2.760081
20
4.851691
11
2.760081
21
4.851691
0
LINE
8
hole
62
5
10
2.760081
20
4.851691
11
2.794216
21
4.848231
0
LINE
8
hole
62
5
10
2.794216
20
4.848231
11
2.794216
21
4.848231
0
LINE
8
hole
62
5
10
2.794216
20
4.848231
11
2.826885
21
4.841779
0
LINE
8
hole
62
5
10
2.826885
20
4.841779
11
2.826885
21
4.841779
0
LINE
8
hole
62
5
10
2.826885
20
4.841779
11
2.858876
21
4.832553
0
LINE
8
hole
62
5
10
2.858876
20
4.832553
11
2.858876
21
4.832553
0
LINE
8
hole
62
5
10
2.858876
20
4.832553
11
2.890034
21
4.820815
0
LINE
8
hole
62
5
10
2.890034
20
4.820815
11
2.890034
21
4.820815
0
LINE
8
hole
62
5
10
2.890034
20
4.820815
11
2.920244
21
4.806820
0
LINE
8
hole
62
5
10
2.920244
20
4.806820
11
2.920244
21
4.806820
0
LINE
8
hole
62
5
10
2.920244
20
4.806820
11
2.949438
21
4.790803
0
LINE
8
hole
62
5
10
2.949438
20
4.790803
11
2.949438
21
4.790803
0
LINE
8
hole
62
5
10
2.949438
20
4.790803
11
2.977568
21
4.772986
0
LINE
8
hole
62
5
10
2.977568
20
4.772986
11
2.977568
21
4.772986
0
LINE
8
hole
62
5
10
2.977568
20
4.772986
11
3.004611
21
4.753555
0
LINE
8
hole
62
5
10
3.004611
20
4.753555
11
3.004611
21
4.753555
0
LINE
8
hole
62
5
10
3.004611
20
4.753555
11
3.030551
21
4.732675
0
LINE
8
hole
62
5
10
3.030551
20
4.732675
11
3.030551
21
4.732675
0
LINE
8
hole
62
5
10
3.030551
20
4.732675
11
3.055379
21
4.710486
0
LINE
8
boundary
62
5
10
5.639828
20
10.790390
11
5.613670
21
10.830796
0
LINE
8
boundary
62
5
10
5.613670
20
10.830796
11
5.582800
21
10.865166
0
LINE
8
boundary
62
5
10
5.582800
20
10.865166
11
5.551808
21
10.899602
0
LINE
8
boundary
62
5
10
5.551808
20
10.899602
11
5.516412
21
10.928707
0
LINE
8
boundary
62
5
10
5.516412
20
10.928707
11
5.480891
21
10.957860
0
LINE
8
boundary
62
5
10
5.480891
20
10.957860
11
5.441310
21
10.981438
0
LINE
8
boundary
62
5
10
5.441310
20
10.981438
11
5.401594
21
11.005068
0
LINE
8
boundary
62
5
10
5.401594
20
11.005068
11
5.359204
21
11.023069
0
LINE
8
boundary
62
5
10
5.359204
20
11.023069
11
5.316678
21
11.041112
0
LINE
8
boundary
62
5
10
5.316678
20
11.041112
11
5.272828
21
11.055654
0
LINE
8
boundary
62
5
10
5.272828
20
11.055654
11
5.228840
21
11.070195
0
LINE
8
boundary
62
5
10
5.228840
20
11.070195
11
5.184524
21
11.083692
0
LINE
8
boundary
62
5
10
5.184524
20
11.083692
11
5.140063
21
11.097158
0
LINE
8
boundary
62
5
10
5.140063
20
11.097158
11
5.096095
21
11.111205
0
LINE
8
boundary
62
5
10
5.096095
20
11.111205
11
5.051984
21
11.125244
0
LINE
8
boundary
62
5
10
5.051984
20
11.125244
11
5.008341
21
11.139707
0
LINE
8
boundary
62
5
10
5.008341
20
11.139707
11
4.964573
21
11.154207
0
LINE
8
boundary
62
5
10
4.964573
20
11.154207
11
4.920968
21
11.168756
0
LINE
8
boundary
62
5
10
4.920968
20
11.168756
11
4.877253
21
11.183379
0
LINE
8
boundary
62
5
10
4.877253
20
11.183379
11
4.833497
21
11.197786
0
LINE
8
boundary
62
5
10
4.833497
20
11.197786
11
4.789628
21
11.212251
0
LINE
8
boundary
62
5
10
4.789628
20
11.212251
11
4.745783
21
11.226538
0
LINE
8
boundary
62
5
10
4.745783
20
11.226538
11
4.701820
21
11.240865
0
LINE
8
boundary
62
5
10
4.701820
20
11.240865
11
4.658427
21
11.254970
0
LINE
8
boundary
62
5
10
4.658427
20
11.254970
11
4.614911
21
11.269105
0
LINE
8
boundary
62
5
10
4.614911
20
11.269105
11
4.570609
21
11.283557
0
LINE
8
boundary
62
5
10
4.570609
20
11.283557
11
4.526183
21
11.298042
0
LINE
8
boundary
62
5
10
4.526183
20
11.298042
11
4.483281
21
11.312077
0
LINE
8
boundary
62
5
10
4.483281
20
11.312077
11
4.440259
21
11.326150
0
LINE
8
boundary
62
5
10
4.440259
20
11.326150
11
4.397350
21
11.340194
0
LINE
8
boundary
62
5
10
4.397350
20
11.340194
11
4.354324
21
11.354280
0
LINE
8
boundary
62
5
10
4.354324
20
11.354280
11
4.308747
21
11.369176
0
LINE
8
boundary
62
5
10
4.308747
20
11.369176
11
4.263046
21
11.384114
0
LINE
8
boundary
62
5
10
4.263046
20
11.384114
11
4.221160
21
11.397797
0
LINE
8
boundary
62
5
10
4.221160
20
11.397797
11
4.179161
21
11.411515
0
LINE
8
boundary
62
5
10
4.179161
20
11.411515
11
4.133379
21
11.426489
0
LINE
8
boundary
62
5
10
4.133379
20
11.426489
11
4.087471
21
11.441500
0
LINE
8
boundary
62
5
10
4.087471
20
11.441500
11
4.043641
21
11.455868
0
LINE
8
boundary
62
5
10
4.043641
20
11.455868
11
3.999688
21
11.470276
0
LINE
8
boundary
62
5
10
3.999688
20
11.470276
11
3.953877
21
11.485282
0
LINE
8
boundary
62
5
10
3.953877
20
11.485282
11
3.907938
21
11.500338
0
LINE
8
boundary
62
5
10
3.907938
20
11.500338
11
3.866262
21
11.513920
0
LINE
8
boundary
62
5
10
3.866262
20
11.513920
11
3.824470
21
11.527551
0
LINE
8
boundary
62
5
10
3.824470
20
11.527551
11
3.780740
21
11.541693
0
LINE
8
boundary
62
5
10
3.780740
20
11.541693
11
3.736895
21
11.555871
0
LINE
8
boundary
62
5
10
3.736895
20
11.555871
11
3.693050
21
11.570069
0
LINE
8
boundary
62
5
10
3.693050
20
11.570069
11
3.649093
21
11.584279
0
LINE
8
boundary
62
5
10
3.649093
20
11.584279
11
3.604883
21
11.598856
0
LINE
8
boundary
62
5
10
3.604883
20
11.598856
11
3.560557
21
11.613425
0
LINE
8
boundary
62
5
10
3.560557
20
11.613425
11
3.516411
21
11.628419
0
LINE
8
boundary
62
5
10
3.516411
20
11.628419
11
3.472123
21
11.643458
0
LINE
8
boundary
62
5
10
3.472123
20
11.643458
11
3.428412
21
11.658277
0
LINE
8
boundary
62
5
10
3.428412
20
11.658277
11
3.384544
21
11.673236
0
LINE
8
boundary
62
5
10
3.384544
20
11.673236
11
3.342345
21
11.686687
0
LINE
8
boundary
62
5
10
3.342345
20
11.686687
11
3.300005
21
11.700348
0
LINE
8
boundary
62
5
10
3.300005
20
11.700348
11
3.257275
21
11.712454
0
LINE
8
boundary
62
5
10
3.257275
20
11.712454
11
3.214482
21
11.724616
0
LINE
8
boundary
62
5
10
3.214482
20
11.724616
11
3.172419
21
11.732707
0
LINE
8
boundary
62
5
10
3.172419
20
11.732707
11
3.130359
21
11.740650
0
LINE
8
boundary
62
5
10
3.130359
20
11.740650
11
3.082135
21
11.738064
0
LINE
8
boundary
62
5
10
3.082135
20
11.738064
11
3.033950
21
11.735057
0
LINE
8
boundary
62
5
10
3.033950
20
11.735057
11
2.995833
21
11.710913
0
LINE
8
boundary
62
5
10
2.995833
20
11.710913
11
2.957709
21
11.686494
0
LINE
8
boundary
62
5
10
2.957709
20
11.686494
11
2.933352
21
11.645605
0
LINE
8
boundary
62
5
10
2.933352
20
11.645605
11
2.908916
21
11.604642
0
LINE
8
boundary
62
5
10
2.908916
20
11.604642
11
2.897618
21
11.560384
0
LINE
8
boundary
62
5
10
2.897618
20
11.560384
11
2.886184
21
11.516078
0
LINE
8
boundary
62
5
10
2.886184
20
11.516078
11
2.887608
21
11.467796
0
LINE
8
boundary
62
5
10
2.887608
20
11.467796
11
2.888849
21
11.419365
0
LINE
8
boundary
62
5
10
2.888849
20
11.419365
11
2.906244
21
11.377490
0
LINE
8
boundary
62
5
10
2.906244
20
11.377490
11
2.923568
21
11.335453
0
LINE
8
boundary
62
5
10
2.923568
20
11.335453
11
2.956131
21
11.300515
0
LINE
8
boundary
62
5
10
2.956131
20
11.300515
11
2.988947
21
11.265613
0
LINE
8
boundary
62
5
10
2.988947
20
11.265613
11
3.027741
21
11.242147
0
LINE
8
boundary
62
5
10
3.027741
20
11.242147
11
3.066968
21
11.218815
0
LINE
8
boundary
62
5
10
3.066968
20
11.218815
11
3.108734
21
11.203159
0
LINE
8
boundary
62
5
10
3.108734
20
11.203159
11
3.150883
21
11.187613
0
LINE
8
boundary
62
5
10
3.150883
20
11.187613
11
3.192514
21
11.176859
0
LINE
8
boundary
62
5
10
3.192514
20
11.176859
11
3.234351
21
11.166156
0
LINE
8
boundary
62
5
10
3.234351
20
11.166156
11
3.278407
21
11.157090
0
LINE
8
boundary
62
5
10
3.278407
20
11.157090
11
3.322453
21
11.147988
0
LINE
8
boundary
62
5
10
3.322453
20
11.147988
11
3.369105
21
11.137840
0
LINE
8
boundary
62
5
10
3.369105
20
11.137840
11
3.415575
21
11.127529
0
LINE
8
boundary
62
5
10
3.415575
20
11.127529
11
3.462752
21
11.110088
0
LINE
8
boundary
62
5
10
3.462752
20
11.110088
11
3.509617
21
11.092249
0
LINE
8
boundary
62
5
10
3.509617
20
11.092249
11
3.538995
21
11.059247
0
LINE
8
boundary
62
5
10
3.538995
20
11.059247
11
3.568263
21
11.025748
0
LINE
8
boundary
62
5
10
3.568263
20
11.025748
11
3.569436
21
10.982277
0
LINE
8
boundary
62
5
10
3.569436
20
10.982277
11
3.570777
21
10.938534
0
LINE
8
boundary
62
5
10
3.570777
20
10.938534
11
3.558777
21
10.893311
0
LINE
8
boundary
62
5
10
3.558777
20
10.893311
11
3.546938
21
10.848012
0
LINE
8
boundary
62
5
10
3.546938
20
10.848012
11
3.530989
21
10.804474
0
LINE
8
boundary
62
5
10
3.530989
20
10.804474
11
3.515038
21
10.760906
0
LINE
8
boundary
62
5
10
3.515038
20
10.760906
11
3.498027
21
10.717053
0
LINE
8
boundary
62
5
10
3.498027
20
10.717053
11
3.480880
21
10.673125
0
LINE
8
boundary
62
5
10
3.480880
20
10.673125
11
3.463816
21
10.630268
0
LINE
8
boundary
62
5
10
3.463816
20
10.630268
11
3.446611
21
10.587287
0
LINE
8
boundary
62
5
10
3.446611
20
10.587287
11
3.429656
21
10.544978
0
LINE
8
boundary
62
5
10
3.429656
20
10.544978
11
3.412636
21
10.502526
0
LINE
8
boundary
62
5
10
3.412636
20
10.502526
11
3.395744
21
10.459963
0
LINE
8
boundary
62
5
10
3.395744
20
10.459963
11
3.378828
21
10.417269
0
LINE
8
boundary
62
5
10
3.378828
20
10.417269
11
3.361938
21
10.374397
0
LINE
8
boundary
62
5
10
3.361938
20
10.374397
11
3.345027
21
10.331408
0
LINE
8
boundary
62
5
10
3.345027
20
10.331408
11
3.328118
21
10.288398
0
LINE
8
boundary
62
5
10
3.328118
20
10.288398
11
3.311170
21
10.245278
0
LINE
8
boundary
62
5
10
3.311170
20
10.245278
11
3.294234
21
10.202302
0
LINE
8
boundary
62
5
10
3.294234
20
10.202302
11
3.277247
21
10.159211
0
LINE
8
boundary
62
5
10
3.277247
20
10.159211
11
3.260316
21
10.116336
0
LINE
8
boundary
62
5
10
3.260316
20
10.116336
11
3.243331
21
10.073345
0
LINE
8
boundary
62
5
10
3.243331
20
10.073345
11
3.226611
21
10.031034
0
LINE
8
boundary
62
5
10
3.226611
20
10.031034
11
3.209843
21
9.988605
0
LINE
8
boundary
62
5
10
3.209843
20
9.988605
11
3.192714
21
9.945236
0
LINE
8
boundary
62
5
10
3.192714
20
9.945236
11
3.175540
21
9.901746
0
LINE
8
boundary
62
5
10
3.175540
20
9.901746
11
3.158988
21
9.859812
0
LINE
8
boundary
62
5
10
3.158988
20
9.859812
11
3.142393
21
9.817762
0
LINE
8
boundary
62
5
10
3.142393
20
9.817762
11
3.125811
21
9.775743
0
LINE
8
boundary
62
5
10
3.125811
20
9.775743
11
3.109185
21
9.733609
0
LINE
8
boundary
62
5
10
3.109185
20
9.733609
11
3.091550
21
9.688927
0
LINE
8
boundary
62
5
10
3.091550
20
9.688927
11
3.073867
21
9.644123
0
LINE
8
boundary
62
5
10
3.073867
20
9.644123
11
3.057721
21
9.603222
0
LINE
8
boundary
62
5
10
3.057721
20
9.603222
11
3.041531
21
9.562208
0
LINE
8
boundary
62
5
10
3.041531
20
9.562208
11
3.023829
21
9.517366
0
LINE
8
boundary
62
5
10
3.023829
20
9.517366
11
3.006078
21
9.472400
0
LINE
8
boundary
62
5
10
3.006078
20
9.472400
11
2.989154
21
9.429529
0
LINE
8
boundary
62
5
10
2.989154
20
9.429529
11
2.972185
21
9.386542
0
LINE
8
boundary
62
5
10
2.972185
20
9.386542
11
2.965546
21
9.369724
0
LINE
8
boundary
62
5
10
2.965546
20
9.369724
11
2.984296
21
9.350974
0
LINE
8
boundary
62
5
10
2.984296
20
9.350974
11
3.288603
21
9.350974
0
LINE
8
boundary
62
5
10
3.288603
20
9.350974
11
3.308879
21
9.364523
0
LINE
8
boundary
62
5
10
3.308879
20
9.364523
11
3.332797
21
9.369280
0
LINE
8
boundary
62
5
10
3.332797
20
9.369280
11
3.356715
21
9.364523
0
LINE
8
boundary
62
5
10
3.356715
20
9.364523
11
3.376991
21
9.350974
0
LINE
8
boundary
62
5
10
3.376991
20
9.350974
11
3.390539
21
9.330698
0
LINE
8
boundary
62
5
10
3.390539
20
9.330698
11
3.395297
21
9.306780
0
LINE
8
boundary
62
5
10
3.395297
20
9.306780
11
3.390539
21
9.282862
0
LINE
8
boundary
62
5
10
3.390539
20
9.282862
11
3.376991
21
9.262586
0
LINE
8
boundary
62
5
10
3.376991
20
9.262586
11
3.376991
21
9.064363
0
LINE
8
boundary
62
5
10
3.376991
20
9.064363
11
3.390539
21
9.044086
0
LINE
8
boundary
62
5
10
3.390539
20
9.044086
11
3.395297
21
9.020169
0
LINE
8
boundary
62
5
10
3.395297
20
9.020169
11
3.390539
21
8.996251
0
LINE
8
boundary
62
5
10
3.390539
20
8.996251
11
3.376991
21
8.975974
0
LINE
8
boundary
62
5
10
3.376991
20
8.975974
11
3.356715
21
8.962426
0
LINE
8
boundary
62
5
10
3.356715
20
8.962426
11
3.332797
21
8.957669
0
LINE
8
boundary
62
5
10
3.332797
20
8.957669
11
3.308879
21
8.962426
0
LINE
8
boundary
62
5
10
3.308879
20
8.962426
11
3.288603
21
8.975974
0
LINE
8
boundary
62
5
10
3.288603
20
8.975974
11
2.821468
21
8.975974
0
LINE
8
boundary
62
5
10
2.821468
20
8.975974
11
2.802718
21
8.957224
0
LINE
8
boundary
62
5
10
2.802718
20
8.957224
11
2.802718
21
8.957223
0
LINE
8
boundary
62
5
10
2.802718
20
8.957223
11
2.785794
21
8.914350
0
LINE
8
boundary
62
5
10
2.785794
20
8.914350
11
2.768824
21
8.871360
0
LINE
8
boundary
62
5
10
2.768824
20
8.871360
11
2.751901
21
8.828487
0
LINE
8
boundary
62
5
10
2.751901
20
8.828487
11
2.734931
21
8.785496
0
LINE
8
boundary
62
5
10
2.734931
20
8.785496
11
2.718169
21
8.743033
0
LINE
8
boundary
62
5
10
2.718169
20
8.743033
11
2.701362
21
8.700455
0
LINE
8
boundary
62
5
10
2.701362
20
8.700455
11
2.684276
21
8.657172
0
LINE
8
boundary
62
5
10
2.684276
20
8.657172
11
2.667144
21
8.613770
0
LINE
8
boundary
62
5
10
2.667144
20
8.613770
11
2.650221
21
8.570897
0
LINE
8
boundary
62
5
10
2.650221
20
8.570897
11
2.633251
21
8.527906
0
LINE
8
boundary
62
5
10
2.633251
20
8.527906
11
2.615561
21
8.483093
0
LINE
8
boundary
62
5
10
2.615561
20
8.483093
11
2.597823
21
8.438157
0
LINE
8
boundary
62
5
10
2.597823
20
8.438157
11
2.581666
21
8.397224
0
LINE
8
boundary
62
5
10
2.581666
20
8.397224
11
2.565464
21
8.356180
0
LINE
8
boundary
62
5
10
2.565464
20
8.356180
11
2.548541
21
8.313306
0
LINE
8
boundary
62
5
10
2.548541
20
8.313306
11
2.531571
21
8.270315
0
LINE
8
boundary
62
5
10
2.531571
20
8.270315
11
2.515009
21
8.228360
0
LINE
8
boundary
62
5
10
2.515009
20
8.228360
11
2.498402
21
8.186289
0
LINE
8
boundary
62
5
10
2.498402
20
8.186289
11
2.481117
21
8.142500
0
LINE
8
boundary
62
5
10
2.481117
20
8.142500
11
2.463784
21
8.098589
0
LINE
8
boundary
62
5
10
2.463784
20
8.098589
11
2.446474
21
8.054738
0
LINE
8
boundary
62
5
10
2.446474
20
8.054738
11
2.429117
21
8.010766
0
LINE
8
boundary
62
5
10
2.429117
20
8.010766
11
2.412580
21
7.968871
0
LINE
8
boundary
62
5
10
2.412580
20
7.968871
11
2.395997
21
7.926862
0
LINE
8
boundary
62
5
10
2.395997
20
7.926862
11
2.379073
21
7.883990
0
LINE
8
boundary
62
5
10
2.379073
20
7.883990
11
2.362103
21
7.840999
0
LINE
8
boundary
62
5
10
2.362103
20
7.840999
11
2.345180
21
7.798126
0
LINE
8
boundary
62
5
10
2.345180
20
7.798126
11
2.328210
21
7.755136
0
LINE
8
boundary
62
5
10
2.328210
20
7.755136
11
2.311286
21
7.712263
0
LINE
8
boundary
62
5
10
2.311286
20
7.712263
11
2.294316
21
7.669273
0
LINE
8
boundary
62
5
10
2.294316
20
7.669273
11
2.277393
21
7.626399
0
LINE
8
boundary
62
5
10
2.277393
20
7.626399
11
2.260423
21
7.583409
0
LINE
8
boundary
62
5
10
2.260423
20
7.583409
11
2.243499
21
7.540536
0
LINE
8
boundary
62
5
10
2.243499
20
7.540536
11
2.226530
21
7.497546
0
LINE
8
boundary
62
5
10
2.226530
20
7.497546
11
2.209606
21
7.454673
0
LINE
8
boundary
62
5
10
2.209606
20
7.454673
11
2.192636
21
7.411682
0
LINE
8
boundary
62
5
10
2.192636
20
7.411682
11
2.175713
21
7.368809
0
LINE
8
boundary
62
5
10
2.175713
20
7.368809
11
2.158743
21
7.325819
0
LINE
8
boundary
62
5
10
2.158743
20
7.325819
11
2.141819
21
7.282946
0
LINE
8
boundary
62
5
10
2.141819
20
7.282946
11
2.124849
21
7.239956
0
LINE
8
boundary
62
5
10
2.124849
20
7.239956
11
2.107926
21
7.197083
0
LINE
8
boundary
62
5
10
2.107926
20
7.197083
11
2.090956
21
7.154092
0
LINE
8
boundary
62
5
10
2.090956
20
7.154092
11
2.073811
21
7.110659
0
LINE
8
boundary
62
5
10
2.073811
20
7.110659
11
2.056620
21
7.067107
0
LINE
8
boundary
62
5
10
2.056620
20
7.067107
11
2.039917
21
7.024794
0
LINE
8
boundary
62
5
10
2.039917
20
7.024794
11
2.023169
21
6.982365
0
LINE
8
boundary
62
5
10
2.023169
20
6.982365
11
2.006188
21
6.939348
0
LINE
8
boundary
62
5
10
2.006188
20
6.939348
11
1.989161
21
6.896211
0
LINE
8
boundary
62
5
10
1.989161
20
6.896211
11
1.972583
21
6.854214
0
LINE
8
boundary
62
5
10
1.972583
20
6.854214
11
1.955960
21
6.812101
0
LINE
8
boundary
62
5
10
1.955960
20
6.812101
11
1.938748
21
6.768498
0
LINE
8
boundary
62
5
10
1.938748
20
6.768498
11
1.921488
21
6.724775
0
LINE
8
boundary
62
5
10
1.921488
20
6.724775
11
1.904922
21
6.682806
0
LINE
8
boundary
62
5
10
1.904922
20
6.682806
11
1.888310
21
6.640722
0
LINE
8
boundary
62
5
10
1.888310
20
6.640722
11
1.871029
21
6.596945
0
LINE
8
boundary
62
5
10
1.871029
20
6.596945
11
1.853701
21
6.553049
0
LINE
8
boundary
62
5
10
1.853701
20
6.553049
11
1.836778
21
6.510176
0
LINE
8
boundary
62
5
10
1.836778
20
6.510176
11
1.819808
21
6.467185
0
LINE
8
boundary
62
5
10
1.819808
20
6.467185
11
1.802884
21
6.424312
0
LINE
8
boundary
62
5
10
1.802884
20
6.424312
11
1.785915
21
6.381322
0
LINE
8
boundary
62
5
10
1.785915
20
6.381322
11
1.768992
21
6.338449
0
LINE
8
boundary
62
5
10
1.768992
20
6.338449
11
1.752022
21
6.295458
0
LINE
8
boundary
62
5
10
1.752022
20
6.295458
11
1.735098
21
6.252586
0
LINE
8
boundary
62
5
10
1.735098
20
6.252586
11
1.718128
21
6.209595
0
LINE
8
boundary
62
5
10
1.718128
20
6.209595
11
1.701205
21
6.166722
0
LINE
8
boundary
62
5
10
1.701205
20
6.166722
11
1.684235
21
6.123731
0
LINE
8
boundary
62
5
10
1.684235
20
6.123731
11
1.667311
21
6.080859
0
LINE
8
boundary
62
5
10
1.667311
20
6.080859
11
1.650341
21
6.037868
0
LINE
8
boundary
62
5
10
1.650341
20
6.037868
11
1.633418
21
5.994995
0
LINE
8
boundary
62
5
10
1.633418
20
5.994995
11
1.616448
21
5.952004
0
LINE
8
boundary
62
5
10
1.616448
20
5.952004
11
1.599524
21
5.909132
0
LINE
8
boundary
62
5
10
1.599524
20
5.909132
11
1.582554
21
5.866142
0
LINE
8
boundary
62
5
10
1.582554
20
5.866142
11
1.565370
21
5.822607
0
LINE
8
boundary
62
5
10
1.565370
20
5.822607
11
1.548138
21
5.778953
0
LINE
8
boundary
62
5
10
1.548138
20
5.778953
11
1.531475
21
5.736742
0
LINE
8
boundary
62
5
10
1.531475
20
5.736742
11
1.514767
21
5.694414
0
LINE
8
boundary
62
5
10
1.514767
20
5.694414
11
1.497844
21
5.651541
0
LINE
8
boundary
62
5
10
1.497844
20
5.651541
11
1.480874
21
5.608551
0
LINE
8
boundary
62
5
10
1.480874
20
5.608551
11
1.463950
21
5.565679
0
LINE
8
boundary
62
5
10
1.463950
20
5.565679
11
1.446980
21
5.522688
0
LINE
8
boundary
62
5
10
1.446980
20
5.522688
11
1.430057
21
5.479815
0
LINE
8
boundary
62
5
10
1.430057
20
5.479815
11
1.413087
21
5.436824
0
LINE
8
boundary
62
5
10
1.413087
20
5.436824
11
1.396931
21
5.395896
0
LINE
8
boundary
62
5
10
1.396931
20
5.395896
11
1.380731
21
5.354855
0
LINE
8
boundary
62
5
10
1.380731
20
5.354855
11
1.362978
21
5.309883
0
LINE
8
boundary
62
5
10
1.362978
20
5.309883
11
1.345178
21
5.264788
0
LINE
8
boundary
62
5
10
1.345178
20
5.264788
11
1.328315
21
5.222070
0
LINE
8
boundary
62
5
10
1.328315
20
5.222070
11
1.311407
21
5.179234
0
LINE
8
boundary
62
5
10
1.311407
20
5.179234
11
1.293674
21
5.134311
0
LINE
8
boundary
62
5
10
1.293674
20
5.134311
11
1.275892
21
5.089265
0
LINE
8
boundary
62
5
10
1.275892
20
5.089265
11
1.259778
21
5.048442
0
LINE
8
boundary
62
5
10
1.259778
20
5.048442
11
1.243620
21
5.007507
0
LINE
8
boundary
62
5
10
1.243620
20
5.007507
11
1.226696
21
4.964635
0
LINE
8
boundary
62
5
10
1.226696
20
4.964635
11
1.209726
21
4.921644
0
LINE
8
boundary
62
5
10
1.209726
20
4.921644
11
1.192803
21
4.878771
0
LINE
8
boundary
62
5
10
1.192803
20
4.878771
11
1.175833
21
4.835781
0
LINE
8
boundary
62
5
10
1.175833
20
4.835781
11
1.158909
21
4.792908
0
LINE
8
boundary
62
5
10
1.158909
20
4.792908
11
1.141939
21
4.749918
0
LINE
8
boundary
62
5
10
1.141939
20
4.749918
11
1.125016
21
4.707045
0
LINE
8
boundary
62
5
10
1.125016
20
4.707045
11
1.108046
21
4.664054
0
LINE
8
boundary
62
5
10
1.108046
20
4.664054
11
1.091123
21
4.621181
0
LINE
8
boundary
62
5
10
1.091123
20
4.621181
11
1.074153
21
4.578190
0
LINE
8
boundary
62
5
10
1.074153
20
4.578190
11
1.057230
21
4.535318
0
LINE
8
boundary
62
5
10
1.057230
20
4.535318
11
1.040260
21
4.492327
0
LINE
8
boundary
62
5
10
1.040260
20
4.492327
11
1.023768
21
4.450549
0
LINE
8
boundary
62
5
10
1.023768
20
4.450549
11
1.007231
21
4.408656
0
LINE
8
boundary
62
5
10
1.007231
20
4.408656
11
0.989875
21
4.364689
0
LINE
8
boundary
62
5
10
0.989875
20
4.364689
11
0.972470
21
4.320601
0
LINE
8
boundary
62
5
10
0.972470
20
4.320601
11
0.955547
21
4.277729
0
LINE
8
boundary
62
5
10
0.955547
20
4.277729
11
0.938577
21
4.234738
0
LINE
8
boundary
62
5
10
0.938577
20
4.234738
11
0.921010
21
4.190233
0
LINE
8
boundary
62
5
10
0.921010
20
4.190233
11
0.917327
21
4.180902
0
LINE
8
boundary
62
5
10
0.917327
20
4.180902
11
0.936077
21
4.162152
0
LINE
8
boundary
62
5
10
0.936077
20
4.162152
11
1.255943
21
4.162152
0
LINE
8
boundary
62
5
10
1.255943
20
4.162152
11
1.276220
21
4.175700
0
LINE
8
boundary
62
5
10
1.276220
20
4.175700
11
1.300137
21
4.180458
0
LINE
8
boundary
62
5
10
1.300137
20
4.180458
11
1.324055
21
4.175700
0
LINE
8
boundary
62
5
10
1.324055
20
4.175700
11
1.344332
21
4.162152
0
LINE
8
boundary
62
5
10
1.344332
20
4.162152
11
1.357880
21
4.141875
0
LINE
8
boundary
62
5
10
1.357880
20
4.141875
11
1.362637
21
4.117958
0
LINE
8
boundary
62
5
10
1.362637
20
4.117958
11
1.357880
21
4.094040
0
LINE
8
boundary
62
5
10
1.357880
20
4.094040
11
1.344332
21
4.073764
0
LINE
8
boundary
62
5
10
1.344332
20
4.073764
11
1.344332
21
3.875540
0
LINE
8
boundary
62
5
10
1.344332
20
3.875540
11
1.357880
21
3.855264
0
LINE
8
boundary
62
5
10
1.357880
20
3.855264
11
1.362637
21
3.831346
0
LINE
8
boundary
62
5
10
1.362637
20
3.831346
11
1.357880
21
3.807428
0
LINE
8
boundary
62
5
10
1.357880
20
3.807428
11
1.344332
21
3.787152
0
LINE
8
boundary
62
5
10
1.344332
20
3.787152
11
1.324055
21
3.773604
0
LINE
8
boundary
62
5
10
1.324055
20
3.773604
11
1.300137
21
3.768846
0
LINE
8
boundary
62
5
10
1.300137
20
3.768846
11
1.276220
21
3.773604
0
LINE
8
boundary
62
5
10
1.276220
20
3.773604
11
1.255943
21
3.787152
0
LINE
8
boundary
62
5
10
1.255943
20
3.787152
11
0.773220
21
3.787152
0
LINE
8
boundary
62
5
10
0.773220
20
3.787152
11
0.754470
21
3.768402
0
LINE
8
boundary
62
5
10
0.754470
20
3.768402
11
0.752096
21
3.762392
0
LINE
8
boundary
62
5
10
0.752096
20
3.762392
11
0.735052
21
3.719235
0
LINE
8
boundary
62
5
10
0.735052
20
3.719235
11
0.718203
21
3.676525
0
LINE
8
boundary
62
5
10
0.718203
20
3.676525
11
0.701310
21
3.633697
0
LINE
8
boundary
62
5
10
0.701310
20
3.633697
11
0.684422
21
3.590804
0
LINE
8
boundary
62
5
10
0.684422
20
3.590804
11
0.667488
21
3.547792
0
LINE
8
boundary
62
5
10
0.667488
20
3.547792
11
0.650596
21
3.504904
0
LINE
8
boundary
62
5
10
0.650596
20
3.504904
11
0.633656
21
3.461898
0
LINE
8
boundary
62
5
10
0.633656
20
3.461898
11
0.616710
21
3.419047
0
LINE
8
boundary
62
5
10
0.616710
20
3.419047
11
0.599714
21
3.376079
0
LINE
8
boundary
62
5
10
0.599714
20
3.376079
11
0.582666
21
3.333280
0
LINE
8
boundary
62
5
10
0.582666
20
3.333280
11
0.565571
21
3.290363
0
LINE
8
boundary
62
5
10
0.565571
20
3.290363
11
0.548519
21
3.247556
0
LINE
8
boundary
62
5
10
0.548519
20
3.247556
11
0.531426
21
3.204630
0
LINE
8
boundary
62
5
10
0.531426
20
3.204630
11
0.514561
21
3.161695
0
LINE
8
boundary
62
5
10
0.514561
20
3.161695
11
0.497660
21
3.118638
0
LINE
8
boundary
62
5
10
0.497660
20
3.118638
11
0.481170
21
3.075505
0
LINE
8
boundary
62
5
10
0.481170
20
3.075505
11
0.464635
21
3.032252
0
LINE
8
boundary
62
5
10
0.464635
20
3.032252
11
0.448220
21
2.989114
0
LINE
8
boundary
62
5
10
0.448220
20
2.989114
11
0.431739
21
2.945861
0
LINE
8
boundary
62
5
10
0.431739
20
2.945861
11
0.414661
21
2.903077
0
LINE
8
boundary
62
5
10
0.414661
20
2.903077
11
0.397494
21
2.860188
0
LINE
8
boundary
62
5
10
0.397494
20
2.860188
11
0.379123
21
2.818288
0
LINE
8
boundary
62
5
10
0.379123
20
2.818288
11
0.360705
21
2.776279
0
LINE
8
boundary
62
5
10
0.360705
20
2.776279
11
0.341786
21
2.734413
0
LINE
8
boundary
62
5
10
0.341786
20
2.734413
11
0.322882
21
2.692419
0
LINE
8
boundary
62
5
10
0.322882
20
2.692419
11
0.306104
21
2.649176
0
LINE
8
boundary
62
5
10
0.306104
20
2.649176
11
0.289397
21
2.605779
0
LINE
8
boundary
62
5
10
0.289397
20
2.605779
11
0.277886
21
2.560417
0
LINE
8
boundary
62
5
10
0.277886
20
2.560417
11
0.266450
21
2.514908
0
LINE
8
boundary
62
5
10
0.266450
20
2.514908
11
0.262863
21
2.469293
0
LINE
8
boundary
62
5
10
0.262863
20
2.469293
11
0.259350
21
2.423561
0
LINE
8
boundary
62
5
10
0.259350
20
2.423561
11
0.266537
21
2.376920
0
LINE
8
boundary
62
5
10
0.266537
20
2.376920
11
0.273834
21
2.330186
0
LINE
8
boundary
62
5
10
0.273834
20
2.330186
11
0.293061
21
2.292809
0
LINE
8
boundary
62
5
10
0.293061
20
2.292809
11
0.312428
21
2.255371
0
LINE
8
boundary
62
5
10
0.312428
20
2.255371
11
0.344957
21
2.225247
0
LINE
8
boundary
62
5
10
0.344957
20
2.225247
11
0.377662
21
2.195088
0
LINE
8
boundary
62
5
10
0.377662
20
2.195088
11
0.418840
21
2.174016
0
LINE
8
boundary
62
5
10
0.418840
20
2.174016
11
0.460213
21
2.152940
0
LINE
8
boundary
62
5
10
0.460213
20
2.152940
11
0.505330
21
2.141179
0
LINE
8
boundary
62
5
10
0.505330
20
2.141179
11
0.550636
21
2.129453
0
LINE
8
boundary
62
5
10
0.550636
20
2.129453
11
0.596429
21
2.126085
0
LINE
8
boundary
62
5
10
0.596429
20
2.126085
11
0.642393
21
2.122799
0
LINE
8
boundary
62
5
10
0.642393
20
2.122799
11
0.688585
21
2.124363
0
LINE
8
boundary
62
5
10
0.688585
20
2.124363
11
0.734934
21
2.126060
0
LINE
8
boundary
62
5
10
0.734934
20
2.126060
11
0.781475
21
2.128726
0
LINE
8
boundary
62
5
10
0.781475
20
2.128726
11
0.828168
21
2.131524
0
LINE
8
boundary
62
5
10
0.828168
20
2.131524
11
0.874445
21
2.132442
0
LINE
8
boundary
62
5
10
0.874445
20
2.132442
11
0.920869
21
2.133417
0
LINE
8
boundary
62
5
10
0.920869
20
2.133417
11
0.966785
21
2.133011
0
LINE
8
boundary
62
5
10
0.966785
20
2.133011
11
1.012832
21
2.132597
0
LINE
8
boundary
62
5
10
1.012832
20
2.132597
11
1.058715
21
2.131860
0
LINE
8
boundary
62
5
10
1.058715
20
2.131860
11
1.104717
21
2.131092
0
LINE
8
boundary
62
5
10
1.104717
20
2.131092
11
1.150725
21
2.130786
0
LINE
8
boundary
62
5
10
1.150725
20
2.130786
11
1.196854
21
2.130479
0
LINE
8
boundary
62
5
10
1.196854
20
2.130479
11
1.241216
21
2.130551
0
LINE
8
boundary
62
5
10
1.241216
20
2.130551
11
1.285700
21
2.130636
0
LINE
8
boundary
62
5
10
1.285700
20
2.130636
11
1.333659
21
2.130843
0
LINE
8
boundary
62
5
10
1.333659
20
2.130843
11
1.381752
21
2.131061
0
LINE
8
boundary
62
5
10
1.381752
20
2.131061
11
1.427853
21
2.131156
0
LINE
8
boundary
62
5
10
1.427853
20
2.131156
11
1.474081
21
2.131252
0
LINE
8
boundary
62
5
10
1.474081
20
2.131252
11
1.520161
21
2.131237
0
LINE
8
boundary
62
5
10
1.520161
20
2.131237
11
1.566367
21
2.131219
0
LINE
8
boundary
62
5
10
1.566367
20
2.131219
11
1.613955
21
2.131164
0
LINE
8
boundary
62
5
10
1.613955
20
2.131164
11
1.661673
21
2.131106
0
LINE
8
boundary
62
5
10
1.661673
20
2.131106
11
1.706243
21
2.131078
0
LINE
8
boundary
62
5
10
1.706243
20
2.131078
11
1.750935
21
2.131051
0
LINE
8
boundary
62
5
10
1.750935
20
2.131051
11
1.798363
21
2.131053
0
LINE
8
boundary
62
5
10
1.798363
20
2.131053
11
1.845921
21
2.131056
0
LINE
8
boundary
62
5
10
1.845921
20
2.131056
11
1.890686
21
2.131070
0
LINE
8
boundary
62
5
10
1.890686
20
2.131070
11
1.935575
21
2.131085
0
LINE
8
boundary
62
5
10
1.935575
20
2.131085
11
1.981668
21
2.131093
0
LINE
8
boundary
62
5
10
1.981668
20
2.131093
11
2.027888
21
2.131102
0
LINE
8
boundary
62
5
10
2.027888
20
2.131102
11
2.073980
21
2.131102
0
LINE
8
boundary
62
5
10
2.073980
20
2.131102
11
2.120198
21
2.131102
0
LINE
8
boundary
62
5
10
2.120198
20
2.131102
11
2.166288
21
2.131098
0
LINE
8
boundary
62
5
10
2.166288
20
2.131098
11
2.212505
21
2.131095
0
LINE
8
boundary
62
5
10
2.212505
20
2.131095
11
2.258597
21
2.131092
0
LINE
8
boundary
62
5
10
2.258597
20
2.131092
11
2.304815
21
2.131089
0
LINE
8
boundary
62
5
10
2.304815
20
2.131089
11
2.350907
21
2.131089
0
LINE
8
boundary
62
5
10
2.350907
20
2.131089
11
2.397126
21
2.131089
0
LINE
8
boundary
62
5
10
2.397126
20
2.131089
11
2.441935
21
2.131090
0
LINE
8
boundary
62
5
10
2.441935
20
2.131090
11
2.486866
21
2.131091
0
LINE
8
boundary
62
5
10
2.486866
20
2.131091
11
2.534242
21
2.131092
0
LINE
8
boundary
62
5
10
2.534242
20
2.131092
11
2.581749
21
2.131092
0
LINE
8
boundary
62
5
10
2.581749
20
2.131092
11
2.627841
21
2.131092
0
LINE
8
boundary
62
5
10
2.627841
20
2.131092
11
2.674060
21
2.131092
0
LINE
8
boundary
62
5
10
2.674060
20
2.131092
11
2.721394
21
2.131092
0
LINE
8
boundary
62
5
10
2.721394
20
2.131092
11
2.768859
21
2.131092
0
LINE
8
boundary
62
5
10
2.768859
20
2.131092
11
2.813709
21
2.131092
0
LINE
8
boundary
62
5
10
2.813709
20
2.131092
11
2.858681
21
2.131092
0
LINE
8
boundary
62
5
10
2.858681
20
2.131092
11
2.904773
21
2.131092
0
LINE
8
boundary
62
5
10
2.904773
20
2.131092
11
2.950992
21
2.131092
0
LINE
8
boundary
62
5
10
2.950992
20
2.131092
11
2.995255
21
2.131092
0
LINE
8
boundary
62
5
10
2.995255
20
2.131092
11
3.039639
21
2.131092
0
LINE
8
boundary
62
5
10
3.039639
20
2.131092
11
3.087561
21
2.131092
0
LINE
8
boundary
62
5
10
3.087561
20
2.131092
11
3.135614
21
2.131092
0
LINE
8
boundary
62
5
10
3.135614
20
2.131092
11
3.181915
21
2.131091
0
LINE
8
boundary
62
5
10
3.181915
20
2.131091
11
3.228343
21
2.131091
0
LINE
8
boundary
62
5
10
3.228343
20
2.131091
11
3.274226
21
2.131091
0
LINE
8
boundary
62
5
10
3.274226
20
2.131091
11
3.320235
21
2.131091
0
LINE
8
boundary
62
5
10
3.320235
20
2.131091
11
3.366327
21
2.131092
0
LINE
8
boundary
62
5
10
3.366327
20
2.131092
11
3.412546
21
2.131092
0
LINE
8
boundary
62
5
10
3.412546
20
2.131092
11
3.458638
21
2.131093
0
LINE
8
boundary
62
5
10
3.458638
20
2.131093
11
3.504857
21
2.131095
0
LINE
8
boundary
62
5
10
3.504857
20
2.131095
11
3.550949
21
2.131095
0
LINE
8
boundary
62
5
10
3.550949
20
2.131095
11
3.597168
21
2.131095
0
LINE
8
boundary
62
5
10
3.597168
20
2.131095
11
3.643260
21
2.131093
0
LINE
8
boundary
62
5
10
3.643260
20
2.131093
11
3.689479
21
2.131091
0
LINE
8
boundary
62
5
10
3.689479
20
2.131091
11
3.735571
21
2.131086
0
LINE
8
boundary
62
5
10
3.735571
20
2.131086
11
3.781790
21
2.131082
0
LINE
8
boundary
62
5
10
3.781790
20
2.131082
11
3.827882
21
2.131081
0
LINE
8
boundary
62
5
10
3.827882
20
2.131081
11
3.874100
21
2.131079
0
LINE
8
boundary
62
5
10
3.874100
20
2.131079
11
3.920191
21
2.131087
0
LINE
8
boundary
62
5
10
3.920191
20
2.131087
11
3.966409
21
2.131094
0
LINE
8
boundary
62
5
10
3.966409
20
2.131094
11
4.012501
21
2.131110
0
LINE
8
boundary
62
5
10
4.012501
20
2.131110
11
4.058719
21
2.131126
0
LINE
8
boundary
62
5
10
4.058719
20
2.131126
11
4.104812
21
2.131133
0
LINE
8
boundary
62
5
10
4.104812
20
2.131133
11
4.151031
21
2.131140
0
LINE
8
boundary
62
5
10
4.151031
20
2.131140
11
4.196883
21
2.131117
0
LINE
8
boundary
62
5
10
4.196883
20
2.131117
11
4.242860
21
2.131094
0
LINE
8
boundary
62
5
10
4.242860
20
2.131094
11
4.289198
21
2.131035
0
LINE
8
boundary
62
5
10
4.289198
20
2.131035
11
4.335663
21
2.130977
0
LINE
8
boundary
62
5
10
4.335663
20
2.130977
11
4.381060
21
2.130944
0
LINE
8
boundary
62
5
10
4.381060
20
2.130944
11
4.426582
21
2.130911
0
LINE
8
boundary
62
5
10
4.426582
20
2.130911
11
4.471735
21
2.130978
0
LINE
8
boundary
62
5
10
4.471735
20
2.130978
11
4.517012
21
2.131044
0
LINE
8
boundary
62
5
10
4.517012
20
2.131044
11
4.564718
21
2.131265
0
LINE
8
boundary
62
5
10
4.564718
20
2.131265
11
4.612553
21
2.131480
0
LINE
8
boundary
62
5
10
4.612553
20
2.131480
11
4.656861
21
2.131625
0
LINE
8
boundary
62
5
10
4.656861
20
2.131625
11
4.701289
21
2.131768
0
LINE
8
boundary
62
5
10
4.701289
20
2.131768
11
4.749207
21
2.131544
0
LINE
8
boundary
62
5
10
4.749207
20
2.131544
11
4.797254
21
2.131331
0
LINE
8
boundary
62
5
10
4.797254
20
2.131331
11
4.843378
21
2.130556
0
LINE
8
boundary
62
5
10
4.843378
20
2.130556
11
4.889630
21
2.129802
0
LINE
8
boundary
62
5
10
4.889630
20
2.129802
11
4.935717
21
2.129188
0
LINE
8
boundary
62
5
10
4.935717
20
2.129188
11
4.981938
21
2.128582
0
LINE
8
boundary
62
5
10
4.981938
20
2.128582
11
5.027887
21
2.129233
0
LINE
8
boundary
62
5
10
5.027887
20
2.129233
11
5.073971
21
2.129868
0
LINE
8
boundary
62
5
10
5.073971
20
2.129868
11
5.120004
21
2.132879
0
LINE
8
boundary
62
5
10
5.120004
20
2.132879
11
5.166154
21
2.135903
0
LINE
8
boundary
62
5
10
5.166154
20
2.135903
11
5.211842
21
2.142706
0
LINE
8
boundary
62
5
10
5.211842
20
2.142706
11
5.257630
21
2.149584
0
LINE
8
boundary
62
5
10
5.257630
20
2.149584
11
5.302184
21
2.161911
0
LINE
8
boundary
62
5
10
5.302184
20
2.161911
11
5.346826
21
2.174391
0
LINE
8
boundary
62
5
10
5.346826
20
2.174391
11
5.388425
21
2.193565
0
LINE
8
boundary
62
5
10
5.388425
20
2.193565
11
5.430099
21
2.212894
0
LINE
8
boundary
62
5
10
5.430099
20
2.212894
11
5.468014
21
2.238840
0
LINE
8
boundary
62
5
10
5.468014
20
2.238840
11
5.505988
21
2.264930
0
LINE
8
boundary
62
5
10
5.505988
20
2.264930
11
5.539131
21
2.296116
0
LINE
8
boundary
62
5
10
5.539131
20
2.296116
11
5.572317
21
2.327436
0
LINE
8
boundary
62
5
10
5.572317
20
2.327436
11
5.601108
21
2.364031
0
LINE
8
boundary
62
5
10
5.601108
20
2.364031
11
5.629920
21
2.400762
0
LINE
8
boundary
62
5
10
5.629920
20
2.400762
11
5.652745
21
2.440808
0
LINE
8
boundary
62
5
10
5.652745
20
2.440808
11
5.675552
21
2.480989
0
LINE
8
boundary
62
5
10
5.675552
20
2.480989
11
5.692801
21
2.526070
0
LINE
8
boundary
62
5
10
5.692801
20
2.526070
11
5.709972
21
2.571293
0
LINE
8
boundary
62
5
10
5.709972
20
2.571293
11
5.719202
21
2.614341
0
LINE
8
boundary
62
5
10
5.719202
20
2.614341
11
5.728370
21
2.657522
0
LINE
8
boundary
62
5
10
5.728370
20
2.657522
11
5.731380
21
2.703400
0
LINE
8
boundary
62
5
10
5.731380
20
2.703400
11
5.734370
21
2.749417
0
LINE
8
boundary
62
5
10
5.734370
20
2.749417
11
5.731517
21
2.794186
0
LINE
8
boundary
62
5
10
5.731517
20
2.794186
11
5.728688
21
2.839078
0
LINE
8
boundary
62
5
10
5.728688
20
2.839078
11
5.720367
21
2.885571
0
LINE
8
boundary
62
5
10
5.720367
20
2.885571
11
5.712057
21
2.932185
0
LINE
8
boundary
62
5
10
5.712057
20
2.932185
11
5.698425
21
2.977573
0
LINE
8
boundary
62
5
10
5.698425
20
2.977573
11
5.684758
21
3.023079
0
LINE
8
boundary
62
5
10
5.684758
20
3.023079
11
5.666378
21
3.063730
0
LINE
8
boundary
62
5
10
5.666378
20
3.063730
11
5.647932
21
3.104487
0
LINE
8
boundary
62
5
10
5.647932
20
3.104487
11
5.622914
21
3.142548
0
LINE
8
boundary
62
5
10
5.622914
20
3.142548
11
5.597804
21
3.180712
0
LINE
8
boundary
62
5
10
5.597804
20
3.180712
11
5.566881
21
3.214491
0
LINE
8
boundary
62
5
10
5.566881
20
3.214491
11
5.535859
21
3.248371
0
LINE
8
boundary
62
5
10
5.535859
20
3.248371
11
5.501187
21
3.278863
0
LINE
8
boundary
62
5
10
5.501187
20
3.278863
11
5.466427
21
3.309454
0
LINE
8
boundary
62
5
10
5.466427
20
3.309454
11
5.430294
21
3.337936
0
LINE
8
boundary
62
5
10
5.430294
20
3.337936
11
5.394061
21
3.366496
0
LINE
8
boundary
62
5
10
5.394061
20
3.366496
11
5.357658
21
3.394324
0
LINE
8
boundary
62
5
10
5.357658
20
3.394324
11
5.321105
21
3.422194
0
LINE
8
boundary
62
5
10
5.321105
20
3.422194
11
5.284139
21
3.450006
0
LINE
8
boundary
62
5
10
5.284139
20
3.450006
11
5.246958
21
3.477836
0
LINE
8
boundary
62
5
10
5.246958
20
3.477836
11
5.209414
21
3.505735
0
LINE
8
boundary
62
5
10
5.209414
20
3.505735
11
5.171640
21
3.533664
0
LINE
8
boundary
62
5
10
5.171640
20
3.533664
11
5.134417
21
3.561133
0
LINE
8
boundary
62
5
10
5.134417
20
3.561133
11
5.097037
21
3.588664
0
LINE
8
boundary
62
5
10
5.097037
20
3.588664
11
5.060232
21
3.615964
0
LINE
8
boundary
62
5
10
5.060232
20
3.615964
11
5.023323
21
3.643331
0
LINE
8
boundary
62
5
10
5.023323
20
3.643331
11
4.986311
21
3.671282
0
LINE
8
boundary
62
5
10
4.986311
20
3.671282
11
4.949205
21
3.699286
0
LINE
8
boundary
62
5
10
4.949205
20
3.699286
11
4.913380
21
3.727150
0
LINE
8
boundary
62
5
10
4.913380
20
3.727150
11
4.877444
21
3.755063
0
LINE
8
boundary
62
5
10
4.877444
20
3.755063
11
4.841389
21
3.784224
0
LINE
8
boundary
62
5
10
4.841389
20
3.784224
11
4.805217
21
3.813449
0
LINE
8
boundary
62
5
10
4.805217
20
3.813449
11
4.770808
21
3.842654
0
LINE
8
boundary
62
5
10
4.770808
20
3.842654
11
4.736297
21
3.871940
0
LINE
8
boundary
62
5
10
4.736297
20
3.871940
11
4.701384
21
3.903334
0
LINE
8
boundary
62
5
10
4.701384
20
3.903334
11
4.666377
21
3.934819
0
LINE
8
boundary
62
5
10
4.666377
20
3.934819
11
4.633861
21
3.965978
0
LINE
8
boundary
62
5
10
4.633861
20
3.965978
11
4.601260
21
3.997228
0
LINE
8
boundary
62
5
10
4.601260
20
3.997228
11
4.568403
21
4.030959
0
LINE
8
boundary
62
5
10
4.568403
20
4.030959
11
4.535461
21
4.064786
0
LINE
8
boundary
62
5
10
4.535461
20
4.064786
11
4.504563
21
4.098966
0
LINE
8
boundary
62
5
10
4.504563
20
4.098966
11
4.473585
21
4.133246
0
LINE
8
boundary
62
5
10
4.473585
20
4.133246
11
4.443981
21
4.168571
0
LINE
8
boundary
62
5
10
4.443981
20
4.168571
11
4.414301
21
4.204001
0
LINE
8
boundary
62
5
10
4.414301
20
4.204001
11
4.386029
21
4.240412
0
LINE
8
boundary
62
5
10
4.386029
20
4.240412
11
4.357686
21
4.276933
0
LINE
8
boundary
62
5
10
4.357686
20
4.276933
11
4.330791
21
4.314359
0
LINE
8
boundary
62
5
10
4.330791
20
4.314359
11
4.303832
21
4.351899
0
LINE
8
boundary
62
5
10
4.303832
20
4.351899
11
4.278357
21
4.390303
0
LINE
8
boundary
62
5
10
4.278357
20
4.390303
11
4.252823
21
4.428823
0
LINE
8
boundary
62
5
10
4.252823
20
4.428823
11
4.228822
21
4.468168
0
LINE
8
boundary
62
5
10
4.228822
20
4.468168
11
4.204770
21
4.507634
0
LINE
8
boundary
62
5
10
4.204770
20
4.507634
11
4.182306
21
4.547872
0
LINE
8
boundary
62
5
10
4.182306
20
4.547872
11
4.159796
21
4.588233
0
LINE
8
boundary
62
5
10
4.159796
20
4.588233
11
4.138919
21
4.629316
0
LINE
8
boundary
62
5
10
4.138919
20
4.629316
11
4.117999
21
4.670522
0
LINE
8
boundary
62
5
10
4.117999
20
4.670522
11
4.098486
21
4.713006
0
LINE
8
boundary
62
5
10
4.098486
20
4.713006
11
4.078934
21
4.755617
0
LINE
8
boundary
62
5
10
4.078934
20
4.755617
11
4.061630
21
4.797605
0
LINE
8
boundary
62
5
10
4.061630
20
4.797605
11
4.044294
21
4.839719
0
LINE
8
boundary
62
5
10
4.044294
20
4.839719
11
4.028466
21
4.883001
0
LINE
8
boundary
62
5
10
4.028466
20
4.883001
11
4.012611
21
4.926412
0
LINE
8
boundary
62
5
10
4.012611
20
4.926412
11
3.998618
21
4.970321
0
LINE
8
boundary
62
5
10
3.998618
20
4.970321
11
3.984604
21
5.014360
0
LINE
8
boundary
62
5
10
3.984604
20
5.014360
11
3.972542
21
5.058839
0
LINE
8
boundary
62
5
10
3.972542
20
5.058839
11
3.960465
21
5.103448
0
LINE
8
boundary
62
5
10
3.960465
20
5.103448
11
3.950840
21
5.146333
0
LINE
8
boundary
62
5
10
3.950840
20
5.146333
11
3.941206
21
5.189344
0
LINE
8
boundary
62
5
10
3.941206
20
5.189344
11
3.932820
21
5.236948
0
LINE
8
boundary
62
5
10
3.932820
20
5.236948
11
3.924430
21
5.284690
0
LINE
8
boundary
62
5
10
3.924430
20
5.284690
11
3.918674
21
5.330276
0
LINE
8
boundary
62
5
10
3.918674
20
5.330276
11
3.912921
21
5.375995
0
LINE
8
boundary
62
5
10
3.912921
20
5.375995
11
3.909235
21
5.424097
0
LINE
8
boundary
62
5
10
3.909235
20
5.424097
11
3.905559
21
5.472337
0
LINE
8
boundary
62
5
10
3.905559
20
5.472337
11
3.904259
21
5.516237
0
LINE
8
boundary
62
5
10
3.904259
20
5.516237
11
3.902975
21
5.560263
0
LINE
8
boundary
62
5
10
3.902975
20
5.560263
11
3.903663
21
5.606340
0
LINE
8
boundary
62
5
10
3.903663
20
5.606340
11
3.904374
21
5.652549
0
LINE
8
boundary
62
5
10
3.904374
20
5.652549
11
3.907092
21
5.698547
0
LINE
8
boundary
62
5
10
3.907092
20
5.698547
11
3.909838
21
5.744674
0
LINE
8
boundary
62
5
10
3.909838
20
5.744674
11
3.914472
21
5.790527
0
LINE
8
boundary
62
5
10
3.914472
20
5.790527
11
3.919141
21
5.836509
0
LINE
8
boundary
62
5
10
3.919141
20
5.836509
11
3.925574
21
5.882149
0
LINE
8
boundary
62
5
10
3.925574
20
5.882149
11
3.932046
21
5.927916
0
LINE
8
boundary
62
5
10
3.932046
20
5.927916
11
3.940153
21
5.973279
0
LINE
8
boundary
62
5
10
3.940153
20
5.973279
11
3.948303
21
6.018769
0
LINE
8
boundary
62
5
10
3.948303
20
6.018769
11
3.957944
21
6.063831
0
LINE
8
boundary
62
5
10
3.957944
20
6.063831
11
3.967632
21
6.109018
0
LINE
8
boundary
62
5
10
3.967632
20
6.109018
11
3.978358
21
6.152586
0
LINE
8
boundary
62
5
10
3.978358
20
6.152586
11
3.989133
21
6.196272
0
LINE
8
boundary
62
5
10
3.989133
20
6.196272
11
4.001738
21
6.241870
0
LINE
8
boundary
62
5
10
4.001738
20
6.241870
11
4.014397
21
6.287592
0
LINE
8
boundary
62
5
10
4.014397
20
6.287592
11
4.027846
21
6.331672
0
LINE
8
boundary
62
5
10
4.027846
20
6.331672
11
4.041349
21
6.375871
0
LINE
8
boundary
62
5
10
4.041349
20
6.375871
11
4.056408
21
6.421238
0
LINE
8
boundary
62
5
10
4.056408
20
6.421238
11
4.071525
21
6.466726
0
LINE
8
boundary
62
5
10
4.071525
20
6.466726
11
4.086432
21
6.508528
0
LINE
8
boundary
62
5
10
4.086432
20
6.508528
11
4.101393
21
6.550442
0
LINE
8
boundary
62
5
10
4.101393
20
6.550442
11
4.118223
21
6.594703
0
LINE
8
boundary
62
5
10
4.118223
20
6.594703
11
4.135113
21
6.639081
0
LINE
8
boundary
62
5
10
4.135113
20
6.639081
11
4.152008
21
6.680950
0
LINE
8
boundary
62
5
10
4.152008
20
6.680950
11
4.168961
21
6.722930
0
LINE
8
boundary
62
5
10
4.168961
20
6.722930
11
4.186894
21
6.765036
0
LINE
8
boundary
62
5
10
4.186894
20
6.765036
11
4.204886
21
6.807255
0
LINE
8
boundary
62
5
10
4.204886
20
6.807255
11
4.223800
21
6.849437
0
LINE
8
boundary
62
5
10
4.223800
20
6.849437
11
4.242776
21
6.891731
0
LINE
8
boundary
62
5
10
4.242776
20
6.891731
11
4.262357
21
6.933303
0
LINE
8
boundary
62
5
10
4.262357
20
6.933303
11
4.281999
21
6.974986
0
LINE
8
boundary
62
5
10
4.281999
20
6.974986
11
4.302403
21
7.016314
0
LINE
8
boundary
62
5
10
4.302403
20
7.016314
11
4.322872
21
7.057753
0
LINE
8
boundary
62
5
10
4.322872
20
7.057753
11
4.344040
21
7.098695
0
LINE
8
boundary
62
5
10
4.344040
20
7.098695
11
4.365274
21
7.139746
0
LINE
8
boundary
62
5
10
4.365274
20
7.139746
11
4.387213
21
7.180280
0
LINE
8
boundary
62
5
10
4.387213
20
7.180280
11
4.409220
21
7.220922
0
LINE
8
boundary
62
5
10
4.409220
20
7.220922
11
4.431936
21
7.261028
0
LINE
8
boundary
62
5
10
4.431936
20
7.261028
11
4.454722
21
7.301241
0
LINE
8
boundary
62
5
10
4.454722
20
7.301241
11
4.478233
21
7.340885
0
LINE
8
boundary
62
5
10
4.478233
20
7.340885
11
4.501815
21
7.380636
0
LINE
8
boundary
62
5
10
4.501815
20
7.380636
11
4.526143
21
7.419780
0
LINE
8
boundary
62
5
10
4.526143
20
7.419780
11
4.550544
21
7.459029
0
LINE
8
boundary
62
5
10
4.550544
20
7.459029
11
4.575710
21
7.497638
0
LINE
8
boundary
62
5
10
4.575710
20
7.497638
11
4.600953
21
7.536350
0
LINE
8
boundary
62
5
10
4.600953
20
7.536350
11
4.626935
21
7.574417
0
LINE
8
boundary
62
5
10
4.626935
20
7.574417
11
4.652997
21
7.612584
0
LINE
8
boundary
62
5
10
4.652997
20
7.612584
11
4.679769
21
7.650172
0
LINE
8
boundary
62
5
10
4.679769
20
7.650172
11
4.706623
21
7.687858
0
LINE
8
boundary
62
5
10
4.706623
20
7.687858
11
4.734028
21
7.724850
0
LINE
8
boundary
62
5
10
4.734028
20
7.724850
11
4.761515
21
7.761941
0
LINE
8
boundary
62
5
10
4.761515
20
7.761941
11
4.789583
21
7.798499
0
LINE
8
boundary
62
5
10
4.789583
20
7.798499
11
4.817734
21
7.835154
0
LINE
8
boundary
62
5
10
4.817734
20
7.835154
11
4.846365
21
7.871275
0
LINE
8
boundary
62
5
10
4.846365
20
7.871275
11
4.875082
21
7.907490
0
LINE
8
boundary
62
5
10
4.875082
20
7.907490
11
4.904209
21
7.943213
0
LINE
8
boundary
62
5
10
4.904209
20
7.943213
11
4.933423
21
7.979029
0
LINE
8
boundary
62
5
10
4.933423
20
7.979029
11
4.962338
21
8.013651
0
LINE
8
boundary
62
5
10
4.962338
20
8.013651
11
4.991339
21
8.048363
0
LINE
8
boundary
62
5
10
4.991339
20
8.048363
11
5.022699
21
8.085162
0
LINE
8
boundary
62
5
10
5.022699
20
8.085162
11
5.054150
21
8.122058
0
LINE
8
boundary
62
5
10
5.054150
20
8.122058
11
5.083481
21
8.155944
0
LINE
8
boundary
62
5
10
5.083481
20
8.155944
11
5.112898
21
8.189919
0
LINE
8
boundary
62
5
10
5.112898
20
8.189919
11
5.143208
21
8.224644
0
LINE
8
boundary
62
5
10
5.143208
20
8.224644
11
5.173605
21
8.259461
0
LINE
8
boundary
62
5
10
5.173605
20
8.259461
11
5.203865
21
8.294228
0
LINE
8
boundary
62
5
10
5.203865
20
8.294228
11
5.234212
21
8.329087
0
LINE
8
boundary
62
5
10
5.234212
20
8.329087
11
5.264219
21
8.364077
0
LINE
8
boundary
62
5
10
5.264219
20
8.364077
11
5.294310
21
8.399160
0
LINE
8
boundary
62
5
10
5.294310
20
8.399160
11
5.323852
21
8.434542
0
LINE
8
boundary
62
5
10
5.323852
20
8.434542
11
5.353475
21
8.470022
0
LINE
8
boundary
62
5
10
5.353475
20
8.470022
11
5.382326
21
8.505960
0
LINE
8
boundary
62
5
10
5.382326
20
8.505960
11
5.411256
21
8.541998
0
LINE
8
boundary
62
5
10
5.411256
20
8.541998
11
5.439189
21
8.578652
0
LINE
8
boundary
62
5
10
5.439189
20
8.578652
11
5.467198
21
8.615407
0
LINE
8
boundary
62
5
10
5.467198
20
8.615407
11
5.493924
21
8.652962
0
LINE
8
boundary
62
5
10
5.493924
20
8.652962
11
5.520721
21
8.690623
0
LINE
8
boundary
62
5
10
5.520721
20
8.690623
11
5.545740
21
8.729323
0
LINE
8
boundary
62
5
10
5.545740
20
8.729323
11
5.570821
21
8.768134
0
LINE
8
boundary
62
5
10
5.570821
20
8.768134
11
5.593555
21
8.808157
0
LINE
8
boundary
62
5
10
5.593555
20
8.808157
11
5.616339
21
8.848298
0
LINE
8
boundary
62
5
10
5.616339
20
8.848298
11
5.636324
21
8.890017
0
LINE
8
boundary
62
5
10
5.636324
20
8.890017
11
5.656347
21
8.931861
0
LINE
8
boundary
62
5
10
5.656347
20
8.931861
11
5.672201
21
8.973124
0
LINE
8
boundary
62
5
10
5.672201
20
8.973124
11
5.688085
21
9.014514
0
LINE
8
boundary
62
5
10
5.688085
20
9.014514
11
5.700937
21
9.060502
0
LINE
8
boundary
62
5
10
5.700937
20
9.060502
11
5.713813
21
9.106629
0
LINE
8
boundary
62
5
10
5.713813
20
9.106629
11
5.721465
21
9.151781
0
LINE
8
boundary
62
5
10
5.721465
20
9.151781
11
5.729115
21
9.197063
0
LINE
8
boundary
62
5
10
5.729115
20
9.197063
11
5.733079
21
9.242963
0
LINE
8
boundary
62
5
10
5.733079
20
9.242963
11
5.737010
21
9.288997
0
LINE
8
boundary
62
5
10
5.737010
20
9.288997
11
5.738638
21
9.336793
0
LINE
8
boundary
62
5
10
5.738638
20
9.336793
11
5.740215
21
9.384735
0
LINE
8
boundary
62
5
10
5.740215
20
9.384735
11
5.740662
21
9.429607
0
LINE
8
boundary
62
5
10
5.740662
20
9.429607
11
5.741089
21
9.474613
0
LINE
8
boundary
62
5
10
5.741089
20
9.474613
11
5.741056
21
9.521790
0
LINE
8
boundary
62
5
10
5.741056
20
9.521790
11
5.741021
21
9.569099
0
LINE
8
boundary
62
5
10
5.741021
20
9.569099
11
5.740842
21
9.613902
0
LINE
8
boundary
62
5
10
5.740842
20
9.613902
11
5.740662
21
9.658826
0
LINE
8
boundary
62
5
10
5.740662
20
9.658826
11
5.740631
21
9.704884
0
LINE
8
boundary
62
5
10
5.740631
20
9.704884
11
5.740584
21
9.751065
0
LINE
8
boundary
62
5
10
5.740584
20
9.751065
11
5.740671
21
9.797183
0
LINE
8
boundary
62
5
10
5.740671
20
9.797183
11
5.740745
21
9.843426
0
LINE
8
boundary
62
5
10
5.740745
20
9.843426
11
5.740735
21
9.889550
0
LINE
8
boundary
62
5
10
5.740735
20
9.889550
11
5.740727
21
9.935802
0
LINE
8
boundary
62
5
10
5.740727
20
9.935802
11
5.740448
21
9.981851
0
LINE
8
boundary
62
5
10
5.740448
20
9.981851
11
5.740174
21
10.028028
0
LINE
8
boundary
62
5
10
5.740174
20
10.028028
11
5.739855
21
10.074066
0
LINE
8
boundary
62
5
10
5.739855
20
10.074066
11
5.739535
21
10.120229
0
LINE
8
boundary
62
5
10
5.739535
20
10.120229
11
5.739677
21
10.164980
0
LINE
8
boundary
62
5
10
5.739677
20
10.164980
11
5.739807
21
10.209853
0
LINE
8
boundary
62
5
10
5.739807
20
10.209853
11
5.740896
21
10.257528
0
LINE
8
boundary
62
5
10
5.740896
20
10.257528
11
5.741982
21
10.305335
0
LINE
8
boundary
62
5
10
5.741982
20
10.305335
11
5.742912
21
10.351625
0
LINE
8
boundary
62
5
10
5.742912
20
10.351625
11
5.743861
21
10.398047
0
LINE
8
boundary
62
5
10
5.743861
20
10.398047
11
5.742156
21
10.445076
0
LINE
8
boundary
62
5
10
5.742156
20
10.445076
11
5.740493
21
10.492238
0
LINE
8
boundary
62
5
10
5.740493
20
10.492238
11
5.734088
21
10.536344
0
LINE
8
boundary
62
5
10
5.734088
20
10.536344
11
5.727677
21
10.580566
0
LINE
8
boundary
62
5
10
5.727677
20
10.580566
11
5.714994
21
10.624692
0
LINE
8
boundary
62
5
10
5.714994
20
10.624692
11
5.702232
21
10.668930
0
LINE
8
boundary
62
5
10
5.702232
20
10.668930
11
5.684104
21
10.709452
0
LINE
8
boundary
62
5
10
5.684104
20
10.709452
11
5.665839
21
10.750081
0
LINE
8
boundary
62
5
10
5.665839
20
10.750081
11
5.639828
21
10.790390
0
LINE
8
annotation
62
1
10
4.512146
20
3.650044
11
4.512146
21
3.999260
0
LINE
8
annotation
62
1
10
4.512146
20
3.999260
11
4.434511
21
3.921603
0
LINE
8
annotation
62
1
10
1.737108
20
3.830362
11
1.737108
21
4.118942
0
LINE
8
annotation
62
1
10
1.737108
20
4.118942
11
1.672953
21
4.054769
0
LINE
8
annotation
62
1
10
5.639159
20
9.025320
11
5.516446
21
9.025320
0
LINE
8
annotation
62
1
10
5.516446
20
9.025320
11
5.629837
21
9.207865
0
LINE
8
annotation
62
1
10
5.629837
20
9.207865
11
5.629837
21
9.207865
0
LINE
8
annotation
62
1
10
5.629837
20
9.207865
11
5.629973
21
9.208033
0
LINE
8
annotation
62
1
10
5.629973
20
9.208033
11
5.630103
21
9.208202
0
LINE
8
annotation
62
1
10
5.630103
20
9.208202
11
5.630228
21
9.208374
0
LINE
8
annotation
62
1
10
5.630228
20
9.208374
11
5.630349
21
9.208550
0
LINE
8
annotation
62
1
10
5.630349
20
9.208550
11
5.630468
21
9.208732
0
LINE
8
annotation
62
1
10
5.630468
20
9.208732
11
5.630584
21
9.208922
0
LINE
8
annotation
62
1
10
5.630584
20
9.208922
11
5.630699
21
9.209119
0
LINE
8
annotation
62
1
10
5.630699
20
9.209119
11
5.630814
21
9.209327
0
LINE
8
annotation
62
1
10
5.630814
20
9.209327
11
5.630929
21
9.209546
0
LINE
8
annotation
62
1
10
5.630929
20
9.209546
11
5.630929
21
9.209546
0
LINE
8
annotation
62
1
10
5.630929
20
9.209546
11
5.635611
21
9.219598
0
LINE
8
annotation
62
1
10
5.635611
20
9.219598
11
5.638346
21
9.230019
0
LINE
8
annotation
62
1
10
5.638346
20
9.230019
11
5.639201
21
9.240571
0
LINE
8
annotation
62
1
10
5.639201
20
9.240571
11
5.638244
21
9.251021
0
LINE
8
annotation
62
1
10
5.638244
20
9.251021
11
5.635540
21
9.261132
0
LINE
8
annotation
62
1
10
5.635540
20
9.261132
11
5.631158
21
9.270669
0
LINE
8
annotation
62
1
10
5.631158
20
9.270669
11
5.625165
21
9.279396
0
LINE
8
annotation
62
1
10
5.625165
20
9.279396
11
5.617627
21
9.287078
0
LINE
8
annotation
62
1
10
5.617627
20
9.287078
11
5.608611
21
9.293481
0
LINE
8
annotation
62
1
10
5.608611
20
9.293481
11
5.608611
21
9.293481
0
LINE
8
annotation
62
1
10
5.608611
20
9.293481
11
5.598530
21
9.298096
0
LINE
8
annotation
62
1
10
5.598530
20
9.298096
11
5.588094
21
9.300789
0
LINE
8
annotation
62
1
10
5.588094
20
9.300789
11
5.577535
21
9.301620
0
LINE
8
annotation
62
1
10
5.577535
20
9.301620
11
5.567088
21
9.300650
0
LINE
8
annotation
62
1
10
5.567088
20
9.300650
11
5.556984
21
9.297939
0
LINE
8
annotation
62
1
10
5.556984
20
9.297939
11
5.547457
21
9.293549
0
LINE
8
annotation
62
1
10
5.547457
20
9.293549
11
5.538742
21
9.287539
0
LINE
8
annotation
62
1
10
5.538742
20
9.287539
11
5.531070
21
9.279970
0
LINE
8
annotation
62
1
10
5.531070
20
9.279970
11
5.524676
21
9.270903
0
LINE
8
annotation
62
1
10
5.524676
20
9.270903
11
5.516619
21
9.255447
0
LINE
8
annotation
62
1
10
3.766654
20
9.031108
11
3.649082
21
9.031108
0
LINE
8
annotation
62
1
10
3.649082
20
9.031108
11
3.757723
21
9.206005
0
LINE
8
annotation
62
1
10
3.757723
20
9.206005
11
3.757723
21
9.206005
0
LINE
8
annotation
62
1
10
3.757723
20
9.206005
11
3.757852
21
9.206166
0
LINE
8
annotation
62
1
10
3.757852
20
9.206166
11
3.757977
21
9.206328
0
LINE
8
annotation
62
1
10
3.757977
20
9.206328
11
3.758097
21
9.206493
0
LINE
8
annotation
62
1
10
3.758097
20
9.206493
11
3.758213
21
9.206662
0
LINE
8
annotation
62
1
10
3.758213
20
9.206662
11
3.758327
21
9.206836
0
LINE
8
annotation
62
1
10
3.758327
20
9.206836
11
3.758438
21
9.207017
0
LINE
8
annotation
62
1
10
3.758438
20
9.207017
11
3.758549
21
9.207207
0
LINE
8
annotation
62
1
10
3.758549
20
9.207207
11
3.758658
21
9.207406
0
LINE
8
annotation
62
1
10
3.758658
20
9.207406
11
3.758768
21
9.207616
0
LINE
8
annotation
62
1
10
3.758768
20
9.207616
11
3.758768
21
9.207616
0
LINE
8
annotation
62
1
10
3.758768
20
9.207616
11
3.763254
21
9.217247
0
LINE
8
annotation
62
1
10
3.763254
20
9.217247
11
3.765875
21
9.227231
0
LINE
8
annotation
62
1
10
3.765875
20
9.227231
11
3.766694
21
9.237341
0
LINE
8
annotation
62
1
10
3.766694
20
9.237341
11
3.765777
21
9.247353
0
LINE
8
annotation
62
1
10
3.765777
20
9.247353
11
3.763187
21
9.257040
0
LINE
8
annotation
62
1
10
3.763187
20
9.257040
11
3.758989
21
9.266177
0
LINE
8
annotation
62
1
10
3.758989
20
9.266177
11
3.753246
21
9.274539
0
LINE
8
annotation
62
1
10
3.753246
20
9.274539
11
3.746024
21
9.281900
0
LINE
8
annotation
62
1
10
3.746024
20
9.281900
11
3.737386
21
9.288034
0
LINE
8
annotation
62
1
10
3.737386
20
9.288034
11
3.737386
21
9.288034
0
LINE
8
annotation
62
1
10
3.737386
20
9.288034
11
3.727728
21
9.292456
0
LINE
8
annotation
62
1
10
3.727728
20
9.292456
11
3.717729
21
9.295036
0
LINE
8
annotation
62
1
10
3.717729
20
9.295036
11
3.707612
21
9.295832
0
LINE
8
annotation
62
1
10
3.707612
20
9.295832
11
3.697602
21
9.294903
0
LINE
8
annotation
62
1
10
3.697602
20
9.294903
11
3.687922
21
9.292305
0
LINE
8
annotation
62
1
10
3.687922
20
9.292305
11
3.678795
21
9.288099
0
LINE
8
annotation
62
1
10
3.678795
20
9.288099
11
3.670444
21
9.282341
0
LINE
8
annotation
62
1
10
3.670444
20
9.282341
11
3.663094
21
9.275089
0
LINE
8
annotation
62
1
10
3.663094
20
9.275089
11
3.656968
21
9.266402
0
LINE
8
annotation
62
1
10
3.656968
20
9.266402
11
3.649248
21
9.251593
0
LINE
8
annotation
62
1
10
2.815602
20
6.353404
11
2.700118
21
6.186368
0
LINE
8
annotation
62
1
10
2.700118
20
6.186368
11
2.584613
21
6.353404
0
LINE
8
annotation
62
1
10
2.700118
20
6.199810
11
2.700118
21
6.007105
0
LINE
8
annotation
62
1
10
3.134837
20
6.180255
11
2.945499
21
6.180255
0
LINE
8
annotation
62
1
10
3.418475
20
6.007113
11
3.264685
21
6.007113
0
LINE
8
annotation
62
1
10
3.264685
20
6.007113
11
3.406792
21
6.235887
0
LINE
8
annotation
62
1
10
3.406792
20
6.235887
11
3.406792
21
6.235887
0
LINE
8
annotation
62
1
10
3.406792
20
6.235887
11
3.406962
21
6.236097
0
LINE
8
annotation
62
1
10
3.406962
20
6.236097
11
3.407125
21
6.236309
0
LINE
8
annotation
62
1
10
3.407125
20
6.236309
11
3.407282
21
6.236525
0
LINE
8
annotation
62
1
10
3.407282
20
6.236525
11
3.407434
21
6.236746
0
LINE
8
annotation
62
1
10
3.407434
20
6.236746
11
3.407582
21
6.236974
0
LINE
8
annotation
62
1
10
3.407582
20
6.236974
11
3.407728
21
6.237211
0
LINE
8
annotation
62
1
10
3.407728
20
6.237211
11
3.407872
21
6.237459
0
LINE
8
annotation
62
1
10
3.407872
20
6.237459
11
3.408016
21
6.237719
0
LINE
8
annotation
62
1
10
3.408016
20
6.237719
11
3.408160
21
6.237994
0
LINE
8
annotation
62
1
10
3.408160
20
6.237994
11
3.408160
21
6.237994
0
LINE
8
annotation
62
1
10
3.408160
20
6.237994
11
3.414028
21
6.250592
0
LINE
8
annotation
62
1
10
3.414028
20
6.250592
11
3.417455
21
6.263651
0
LINE
8
annotation
62
1
10
3.417455
20
6.263651
11
3.418527
21
6.276876
0
LINE
8
annotation
62
1
10
3.418527
20
6.276876
11
3.417327
21
6.289972
0
LINE
8
annotation
62
1
10
3.417327
20
6.289972
11
3.413940
21
6.302643
0
LINE
8
annotation
62
1
10
3.413940
20
6.302643
11
3.408448
21
6.314595
0
LINE
8
annotation
62
1
10
3.408448
20
6.314595
11
3.400937
21
6.325533
0
LINE
8
annotation
62
1
10
3.400937
20
6.325533
11
3.391489
21
6.335161
0
LINE
8
annotation
62
1
10
3.391489
20
6.335161
11
3.380190
21
6.343184
0
LINE
8
annotation
62
1
10
3.380190
20
6.343184
11
3.380190
21
6.343184
0
LINE
8
annotation
62
1
10
3.380190
20
6.343184
11
3.367557
21
6.348968
0
LINE
8
annotation
62
1
10
3.367557
20
6.348968
11
3.354478
21
6.352343
0
LINE
8
annotation
62
1
10
3.354478
20
6.352343
11
3.341245
21
6.353385
0
LINE
8
annotation
62
1
10
3.341245
20
6.353385
11
3.328152
21
6.352169
0
LINE
8
annotation
62
1
10
3.328152
20
6.352169
11
3.315489
21
6.348772
0
LINE
8
annotation
62
1
10
3.315489
20
6.348772
11
3.303550
21
6.343269
0
LINE
8
annotation
62
1
10
3.303550
20
6.343269
11
3.292628
21
6.335737
0
LINE
8
annotation
62
1
10
3.292628
20
6.335737
11
3.283013
21
6.326252
0
LINE
8
annotation
62
1
10
3.283013
20
6.326252
11
3.275000
21
6.314889
0
LINE
8
annotation
62
1
10
3.275000
20
6.314889
11
3.264902
21
6.295518
0
LINE
8
boundary
62
5
10
6.713484
20
0.740650
11
6.782371
21
0.740650
0
LINE
8
boundary
62
5
10
6.782371
20
0.740650
11
6.807973
21
0.740650
0
LINE
8
boundary
62
5
10
6.807973
20
0.740650
11
6.844856
21
0.740650
0
LINE
8
boundary
62
5
10
6.844856
20
0.740650
11
6.961027
21
0.740650
0
LINE
8
boundary
62
5
10
6.961027
20
0.740650
11
7.009094
21
0.740650
0
LINE
8
boundary
62
5
10
7.009094
20
0.740650
11
7.044651
21
0.740650
0
LINE
8
boundary
62
5
10
7.044651
20
0.740650
11
7.050239
21
0.924799
0
LINE
8
boundary
62
5
10
7.050239
20
0.924799
11
7.052607
21
1.027031
0
LINE
8
boundary
62
5
10
7.052607
20
1.027031
11
7.053576
21
1.071190
0
LINE
8
boundary
62
5
10
7.053576
20
1.071190
11
7.057952
21
1.220608
0
LINE
8
boundary
62
5
10
7.057952
20
1.220608
11
7.059185
21
1.313410
0
LINE
8
boundary
62
5
10
7.059185
20
1.313410
11
7.062252
21
1.566046
0
LINE
8
boundary
62
5
10
7.062252
20
1.566046
11
7.064082
21
1.665160
0
LINE
8
boundary
62
5
10
7.064082
20
1.665160
11
7.065645
21
1.888074
0
LINE
8
boundary
62
5
10
7.065645
20
1.888074
11
7.066002
21
2.120674
0
LINE
8
boundary
62
5
10
7.066002
20
2.120674
11
7.066313
21
2.367733
0
LINE
8
boundary
62
5
10
7.066313
20
2.367733
11
7.066313
21
2.367733
0
LINE
8
boundary
62
5
10
7.066313
20
2.367733
11
7.047563
21
2.386483
0
LINE
8
boundary
62
5
10
7.047563
20
2.386483
11
6.679890
21
2.386483
0
LINE
8
boundary
62
5
10
6.679890
20
2.386483
11
6.659613
21
2.372935
0
LINE
8
boundary
62
5
10
6.659613
20
2.372935
11
6.635696
21
2.368177
0
LINE
8
boundary
62
5
10
6.635696
20
2.368177
11
6.611778
21
2.372935
0
LINE
8
boundary
62
5
10
6.611778
20
2.372935
11
6.591502
21
2.386483
0
LINE
8
boundary
62
5
10
6.591502
20
2.386483
11
6.577953
21
2.406759
0
LINE
8
boundary
62
5
10
6.577953
20
2.406759
11
6.573196
21
2.430677
0
LINE
8
boundary
62
5
10
6.573196
20
2.430677
11
6.577953
21
2.454595
0
LINE
8
boundary
62
5
10
6.577953
20
2.454595
11
6.591502
21
2.474871
0
LINE
8
boundary
62
5
10
6.591502
20
2.474871
11
6.591502
21
2.673095
0
LINE
8
boundary
62
5
10
6.591502
20
2.673095
11
6.577953
21
2.693371
0
LINE
8
boundary
62
5
10
6.577953
20
2.693371
11
6.573196
21
2.717289
0
LINE
8
boundary
62
5
10
6.573196
20
2.717289
11
6.577953
21
2.741206
0
LINE
8
boundary
62
5
10
6.577953
20
2.741206
11
6.591502
21
2.761483
0
LINE
8
boundary
62
5
10
6.591502
20
2.761483
11
6.611778
21
2.775031
0
LINE
8
boundary
62
5
10
6.611778
20
2.775031
11
6.635696
21
2.779789
0
LINE
8
boundary
62
5
10
6.635696
20
2.779789
11
6.659613
21
2.775031
0
LINE
8
boundary
62
5
10
6.659613
20
2.775031
11
6.679890
21
2.761483
0
LINE
8
boundary
62
5
10
6.679890
20
2.761483
11
7.045925
21
2.761483
0
LINE
8
boundary
62
5
10
7.045925
20
2.761483
11
7.064675
21
2.780233
0
LINE
8
boundary
62
5
10
7.064675
20
2.780233
11
7.064675
21
2.780233
0
LINE
8
boundary
62
5
10
7.064675
20
2.780233
11
7.063441
21
3.043951
0
LINE
8
boundary
62
5
10
7.063441
20
3.043951
11
7.058651
21
3.596349
0
LINE
8
boundary
62
5
10
7.058651
20
3.596349
11
7.058451
21
3.624982
0
LINE
8
boundary
62
5
10
7.058451
20
3.624982
11
7.058098
21
3.664003
0
LINE
8
boundary
62
5
10
7.058098
20
3.664003
11
7.054071
21
4.206019
0
LINE
8
boundary
62
5
10
7.054071
20
4.206019
11
7.049780
21
4.730798
0
LINE
8
boundary
62
5
10
7.049780
20
4.730798
11
7.049407
21
4.787065
0
LINE
8
boundary
62
5
10
7.049407
20
4.787065
11
7.048582
21
4.919803
0
LINE
8
boundary
62
5
10
7.048582
20
4.919803
11
7.046520
21
5.368124
0
LINE
8
boundary
62
5
10
7.046520
20
5.368124
11
7.046062
21
5.513230
0
LINE
8
boundary
62
5
10
7.046062
20
5.513230
11
7.044952
21
5.949199
0
LINE
8
boundary
62
5
10
7.044952
20
5.949199
11
7.044925
21
6.034400
0
LINE
8
boundary
62
5
10
7.044925
20
6.034400
11
7.026175
21
6.053150
0
LINE
8
boundary
62
5
10
7.026175
20
6.053150
11
6.545278
21
6.053150
0
LINE
8
boundary
62
5
10
6.545278
20
6.053150
11
6.525002
21
6.039601
0
LINE
8
boundary
62
5
10
6.525002
20
6.039601
11
6.501084
21
6.034844
0
LINE
8
boundary
62
5
10
6.501084
20
6.034844
11
6.477166
21
6.039601
0
LINE
8
boundary
62
5
10
6.477166
20
6.039601
11
6.456890
21
6.053150
0
LINE
8
boundary
62
5
10
6.456890
20
6.053150
11
6.443341
21
6.073426
0
LINE
8
boundary
62
5
10
6.443341
20
6.073426
11
6.438584
21
6.097344
0
LINE
8
boundary
62
5
10
6.438584
20
6.097344
11
6.443341
21
6.121261
0
LINE
8
boundary
62
5
10
6.443341
20
6.121261
11
6.456890
21
6.141538
0
LINE
8
boundary
62
5
10
6.456890
20
6.141538
11
6.456890
21
6.339761
0
LINE
8
boundary
62
5
10
6.456890
20
6.339761
11
6.443341
21
6.360038
0
LINE
8
boundary
62
5
10
6.443341
20
6.360038
11
6.438584
21
6.383955
0
LINE
8
boundary
62
5
10
6.438584
20
6.383955
11
6.443341
21
6.407873
0
LINE
8
boundary
62
5
10
6.443341
20
6.407873
11
6.456890
21
6.428150
0
LINE
8
boundary
62
5
10
6.456890
20
6.428150
11
6.477166
21
6.441698
0
LINE
8
boundary
62
5
10
6.477166
20
6.441698
11
6.501084
21
6.446455
0
LINE
8
boundary
62
5
10
6.501084
20
6.446455
11
6.525002
21
6.441698
0
LINE
8
boundary
62
5
10
6.525002
20
6.441698
11
6.545278
21
6.428150
0
LINE
8
boundary
62
5
10
6.545278
20
6.428150
11
7.026050
21
6.428150
0
LINE
8
boundary
62
5
10
7.026050
20
6.428150
11
7.044800
21
6.446900
0
LINE
8
boundary
62
5
10
7.044800
20
6.446900
11
7.044775
21
6.531291
0
LINE
8
boundary
62
5
10
7.044775
20
6.531291
11
7.045271
21
6.721242
0
LINE
8
boundary
62
5
10
7.045271
20
6.721242
11
7.046012
21
7.113961
0
LINE
8
boundary
62
5
10
7.046012
20
7.113961
11
7.046614
21
7.225793
0
LINE
8
boundary
62
5
10
7.046614
20
7.225793
11
7.048201
21
7.652844
0
LINE
8
boundary
62
5
10
7.048201
20
7.652844
11
7.048412
21
7.688114
0
LINE
8
boundary
62
5
10
7.048412
20
7.688114
11
7.048446
21
7.696616
0
LINE
8
boundary
62
5
10
7.048446
20
7.696616
11
7.052004
21
8.113384
0
LINE
8
boundary
62
5
10
7.052004
20
8.113384
11
7.052845
21
8.276257
0
LINE
8
boundary
62
5
10
7.052845
20
8.276257
11
7.055283
21
8.513730
0
LINE
8
boundary
62
5
10
7.055283
20
8.513730
11
7.057083
21
8.853652
0
LINE
8
boundary
62
5
10
7.057083
20
8.853652
11
7.057519
21
8.893850
0
LINE
8
boundary
62
5
10
7.057519
20
8.893850
11
7.057769
21
8.956341
0
LINE
8
boundary
62
5
10
7.057769
20
8.956341
11
7.061069
21
9.247799
0
LINE
8
boundary
62
5
10
7.061069
20
9.247799
11
7.061757
21
9.431051
0
LINE
8
boundary
62
5
10
7.061757
20
9.431051
11
7.063330
21
9.586345
0
LINE
8
boundary
62
5
10
7.063330
20
9.586345
11
7.063341
21
9.701066
0
LINE
8
boundary
62
5
10
7.063341
20
9.701066
11
7.044591
21
9.719816
0
LINE
8
boundary
62
5
10
7.044591
20
9.719816
11
6.679190
21
9.719816
0
LINE
8
boundary
62
5
10
6.679190
20
9.719816
11
6.658914
21
9.706268
0
LINE
8
boundary
62
5
10
6.658914
20
9.706268
11
6.634996
21
9.701510
0
LINE
8
boundary
62
5
10
6.634996
20
9.701510
11
6.611078
21
9.706268
0
LINE
8
boundary
62
5
10
6.611078
20
9.706268
11
6.590802
21
9.719816
0
LINE
8
boundary
62
5
10
6.590802
20
9.719816
11
6.577254
21
9.740093
0
LINE
8
boundary
62
5
10
6.577254
20
9.740093
11
6.572496
21
9.764010
0
LINE
8
boundary
62
5
10
6.572496
20
9.764010
11
6.577254
21
9.787928
0
LINE
8
boundary
62
5
10
6.577254
20
9.787928
11
6.590802
21
9.808205
0
LINE
8
boundary
62
5
10
6.590802
20
9.808205
11
6.590802
21
10.006428
0
LINE
8
boundary
62
5
10
6.590802
20
10.006428
11
6.577254
21
10.026704
0
LINE
8
boundary
62
5
10
6.577254
20
10.026704
11
6.572496
21
10.050622
0
LINE
8
boundary
62
5
10
6.572496
20
10.050622
11
6.577254
21
10.074540
0
LINE
8
boundary
62
5
10
6.577254
20
10.074540
11
6.590802
21
10.094816
0
LINE
8
boundary
62
5
10
6.590802
20
10.094816
11
6.611078
21
10.108365
0
LINE
8
boundary
62
5
10
6.611078
20
10.108365
11
6.634996
21
10.113122
0
LINE
8
boundary
62
5
10
6.634996
20
10.113122
11
6.658914
21
10.108365
0
LINE
8
boundary
62
5
10
6.658914
20
10.108365
11
6.679190
21
10.094816
0
LINE
8
boundary
62
5
10
6.679190
20
10.094816
11
7.046496
21
10.094816
0
LINE
8
boundary
62
5
10
7.046496
20
10.094816
11
7.065246
21
10.113566
0
LINE
8
boundary
62
5
10
7.065246
20
10.113566
11
7.065246
21
10.113566
0
LINE
8
boundary
62
5
10
7.065246
20
10.113566
11
7.065910
21
10.218385
0
LINE
8
boundary
62
5
10
7.065910
20
10.218385
11
7.064245
21
10.438896
0
LINE
8
boundary
62
5
10
7.064245
20
10.438896
11
7.064692
21
10.516153
0
LINE
8
boundary
62
5
10
7.064692
20
10.516153
11
7.064096
21
10.585858
0
LINE
8
boundary
62
5
10
7.064096
20
10.585858
11
7.063854
21
10.800651
0
LINE
8
boundary
62
5
10
7.063854
20
10.800651
11
7.060127
21
10.993577
0
LINE
8
boundary
62
5
10
7.060127
20
10.993577
11
7.057883
21
11.163257
0
LINE
8
boundary
62
5
10
7.057883
20
11.163257
11
7.057195
21
11.210868
0
LINE
8
boundary
62
5
10
7.057195
20
11.210868
11
7.056211
21
11.249818
0
LINE
8
boundary
62
5
10
7.056211
20
11.249818
11
7.054854
21
11.342352
0
LINE
8
boundary
62
5
10
7.054854
20
11.342352
11
7.052070
21
11.451954
0
LINE
8
boundary
62
5
10
7.052070
20
11.451954
11
7.051114
21
11.487567
0
LINE
8
boundary
62
5
10
7.051114
20
11.487567
11
7.048699
21
11.599367
0
LINE
8
boundary
62
5
10
7.048699
20
11.599367
11
7.044687
21
11.740650
0
LINE
8
boundary
62
5
10
7.044687
20
11.740650
11
6.994806
21
11.740650
0
LINE
8
boundary
62
5
10
6.994806
20
11.740650
11
6.958567
21
11.740650
0
LINE
8
boundary
62
5
10
6.958567
20
11.740650
11
6.836810
21
11.740650
0
LINE
8
boundary
62
5
10
6.836810
20
11.740650
11
6.784274
21
11.740650
0
LINE
8
boundary
62
5
10
6.784274
20
11.740650
11
6.715365
21
11.740650
0
LINE
8
boundary
62
5
10
6.715365
20
11.740650
11
6.651675
21
11.740650
0
LINE
8
boundary
62
5
10
6.651675
20
11.740650
11
6.603996
21
11.740650
0
LINE
8
boundary
62
5
10
6.603996
20
11.740650
11
6.556317
21
11.740650
0
LINE
8
boundary
62
5
10
6.556317
20
11.740650
11
6.513857
21
11.740650
0
LINE
8
boundary
62
5
10
6.513857
20
11.740650
11
6.492165
21
11.740650
0
LINE
8
boundary
62
5
10
6.492165
20
11.740650
11
6.438047
21
11.740650
0
LINE
8
boundary
62
5
10
6.438047
20
11.740650
11
6.433112
21
11.740650
0
LINE
8
boundary
62
5
10
6.433112
20
11.740650
11
6.431188
21
11.740650
0
LINE
8
boundary
62
5
10
6.431188
20
11.740650
11
6.429729
21
11.732091
0
LINE
8
boundary
62
5
10
6.429729
20
11.732091
11
6.425073
21
11.705668
0
LINE
8
boundary
62
5
10
6.425073
20
11.705668
11
6.401620
21
11.571445
0
LINE
8
boundary
62
5
10
6.401620
20
11.571445
11
6.380219
21
11.446655
0
LINE
8
boundary
62
5
10
6.380219
20
11.446655
11
6.372572
21
11.402240
0
LINE
8
boundary
62
5
10
6.372572
20
11.402240
11
6.337386
21
11.190291
0
LINE
8
boundary
62
5
10
6.337386
20
11.190291
11
6.328395
21
11.135834
0
LINE
8
boundary
62
5
10
6.328395
20
11.135834
11
6.316184
21
11.063830
0
LINE
8
boundary
62
5
10
6.316184
20
11.063830
11
6.272087
21
10.789151
0
LINE
8
boundary
62
5
10
6.272087
20
10.789151
11
6.261945
21
10.725419
0
LINE
8
boundary
62
5
10
6.261945
20
10.725419
11
6.257089
21
10.693396
0
LINE
8
boundary
62
5
10
6.257089
20
10.693396
11
6.210338
21
10.387009
0
LINE
8
boundary
62
5
10
6.210338
20
10.387009
11
6.183069
21
10.198324
0
LINE
8
boundary
62
5
10
6.183069
20
10.198324
11
6.161339
21
10.048599
0
LINE
8
boundary
62
5
10
6.161339
20
10.048599
11
6.116562
21
9.720443
0
LINE
8
boundary
62
5
10
6.116562
20
9.720443
11
6.115176
21
9.710189
0
LINE
8
boundary
62
5
10
6.115176
20
9.710189
11
6.114499
21
9.704827
0
LINE
8
boundary
62
5
10
6.114499
20
9.704827
11
6.072422
21
9.371779
0
LINE
8
boundary
62
5
10
6.072422
20
9.371779
11
6.050677
21
9.185194
0
LINE
8
boundary
62
5
10
6.050677
20
9.185194
11
6.032984
21
9.033369
0
LINE
8
boundary
62
5
10
6.032984
20
9.033369
11
6.009022
21
8.807776
0
LINE
8
boundary
62
5
10
6.009022
20
8.807776
11
5.997185
21
8.694959
0
LINE
8
boundary
62
5
10
5.997185
20
8.694959
11
5.988338
21
8.600908
0
LINE
8
boundary
62
5
10
5.988338
20
8.600908
11
5.965387
21
8.356548
0
LINE
8
boundary
62
5
10
5.965387
20
8.356548
11
5.940722
21
8.056351
0
LINE
8
boundary
62
5
10
5.940722
20
8.056351
11
5.937622
21
8.018138
0
LINE
8
boundary
62
5
10
5.937622
20
8.018138
11
5.934695
21
7.975424
0
LINE
8
boundary
62
5
10
5.934695
20
7.975424
11
5.913551
21
7.665959
0
LINE
8
boundary
62
5
10
5.913551
20
7.665959
11
5.901487
21
7.445556
0
LINE
8
boundary
62
5
10
5.901487
20
7.445556
11
5.894200
21
7.310025
0
LINE
8
boundary
62
5
10
5.894200
20
7.310025
11
5.881181
21
6.980599
0
LINE
8
boundary
62
5
10
5.881181
20
6.980599
11
5.880141
21
6.954092
0
LINE
8
boundary
62
5
10
5.880141
20
6.954092
11
5.879932
21
6.945478
0
LINE
8
boundary
62
5
10
5.879932
20
6.945478
11
5.871707
21
6.598159
0
LINE
8
boundary
62
5
10
5.871707
20
6.598159
11
5.871141
21
6.528584
0
LINE
8
boundary
62
5
10
5.871141
20
6.528584
11
5.868861
21
6.240650
0
LINE
8
boundary
62
5
10
5.868861
20
6.240650
11
5.869496
21
6.161225
0
LINE
8
boundary
62
5
10
5.869496
20
6.161225
11
5.871601
21
5.889851
0
LINE
8
boundary
62
5
10
5.871601
20
5.889851
11
5.872941
21
5.833895
0
LINE
8
boundary
62
5
10
5.872941
20
5.833895
11
5.879772
21
5.539054
0
LINE
8
boundary
62
5
10
5.879772
20
5.539054
11
5.880071
21
5.531526
0
LINE
8
boundary
62
5
10
5.880071
20
5.531526
11
5.881181
21
5.502555
0
LINE
8
boundary
62
5
10
5.881181
20
5.502555
11
5.890961
21
5.252941
0
LINE
8
boundary
62
5
10
5.890961
20
5.252941
11
5.893407
21
5.188256
0
LINE
8
boundary
62
5
10
5.893407
20
5.188256
11
5.904227
21
4.989558
0
LINE
8
boundary
62
5
10
5.904227
20
4.989558
11
5.912201
21
4.837459
0
LINE
8
boundary
62
5
10
5.912201
20
4.837459
11
5.919185
21
4.736714
0
LINE
8
boundary
62
5
10
5.919185
20
4.736714
11
5.934693
21
4.503722
0
LINE
8
boundary
62
5
10
5.934693
20
4.503722
11
5.935496
21
4.491995
0
LINE
8
boundary
62
5
10
5.935496
20
4.491995
11
5.935847
21
4.486661
0
LINE
8
boundary
62
5
10
5.935847
20
4.486661
11
5.954184
21
4.264771
0
LINE
8
boundary
62
5
10
5.954184
20
4.264771
11
5.964411
21
4.135863
0
LINE
8
boundary
62
5
10
5.964411
20
4.135863
11
5.973577
21
4.040672
0
LINE
8
boundary
62
5
10
5.973577
20
4.040672
11
5.988337
21
3.880700
0
LINE
8
boundary
62
5
10
5.988337
20
3.880700
11
5.994223
21
3.818950
0
LINE
8
boundary
62
5
10
5.994223
20
3.818950
11
5.997313
21
3.785066
0
LINE
8
boundary
62
5
10
5.997313
20
3.785066
11
6.017363
21
3.599927
0
LINE
8
boundary
62
5
10
6.017363
20
3.599927
11
6.034500
21
3.434269
0
LINE
8
boundary
62
5
10
6.034500
20
3.434269
11
6.040949
21
3.380811
0
LINE
8
boundary
62
5
10
6.040949
20
3.380811
11
6.050677
21
3.296282
0
LINE
8
boundary
62
5
10
6.050677
20
3.296282
11
6.065864
21
3.168969
0
LINE
8
boundary
62
5
10
6.065864
20
3.168969
11
6.075610
21
3.083471
0
LINE
8
boundary
62
5
10
6.075610
20
3.083471
11
6.091683
21
2.960722
0
LINE
8
boundary
62
5
10
6.091683
20
2.960722
11
6.114500
21
2.778220
0
LINE
8
boundary
62
5
10
6.114500
20
2.778220
11
6.117997
21
2.751204
0
LINE
8
boundary
62
5
10
6.117997
20
2.751204
11
6.120287
21
2.732674
0
LINE
8
boundary
62
5
10
6.120287
20
2.732674
11
6.146095
21
2.548810
0
LINE
8
boundary
62
5
10
6.146095
20
2.548810
11
6.167979
21
2.385497
0
LINE
8
boundary
62
5
10
6.167979
20
2.385497
11
6.174198
21
2.344136
0
LINE
8
boundary
62
5
10
6.174198
20
2.344136
11
6.183071
21
2.282366
0
LINE
8
boundary
62
5
10
6.183071
20
2.282366
11
6.203136
21
2.147211
0
LINE
8
boundary
62
5
10
6.203136
20
2.147211
11
6.216271
21
2.054615
0
LINE
8
boundary
62
5
10
6.216271
20
2.054615
11
6.232849
21
1.949541
0
LINE
8
boundary
62
5
10
6.232849
20
1.949541
11
6.257088
21
1.788746
0
LINE
8
boundary
62
5
10
6.257088
20
1.788746
11
6.263136
21
1.749835
0
LINE
8
boundary
62
5
10
6.263136
20
1.749835
11
6.267013
21
1.723732
0
LINE
8
boundary
62
5
10
6.267013
20
1.723732
11
6.295000
21
1.553353
0
LINE
8
boundary
62
5
10
6.295000
20
1.553353
11
6.320205
21
1.392851
0
LINE
8
boundary
62
5
10
6.320205
20
1.392851
11
6.329899
21
1.335790
0
LINE
8
boundary
62
5
10
6.329899
20
1.335790
11
6.337388
21
1.290568
0
LINE
8
boundary
62
5
10
6.337388
20
1.290568
11
6.374000
21
1.070650
0
LINE
8
boundary
62
5
10
6.374000
20
1.070650
11
6.376460
21
1.056558
0
LINE
8
boundary
62
5
10
6.376460
20
1.056558
11
6.380217
21
1.034563
0
LINE
8
boundary
62
5
10
6.380217
20
1.034563
11
6.393737
21
0.956470
0
LINE
8
boundary
62
5
10
6.393737
20
0.956470
11
6.402348
21
0.905650
0
LINE
8
boundary
62
5
10
6.402348
20
0.905650
11
6.425073
21
0.775618
0
LINE
8
boundary
62
5
10
6.425073
20
0.775618
11
6.431188
21
0.740650
0
LINE
8
boundary
62
5
10
6.431188
20
0.740650
11
6.433002
21
0.740650
0
LINE
8
boundary
62
5
10
6.433002
20
0.740650
11
6.437941
21
0.740650
0
LINE
8
boundary
62
5
10
6.437941
20
0.740650
11
6.491217
21
0.740650
0
LINE
8
boundary
62
5
10
6.491217
20
0.740650
11
6.511882
21
0.740650
0
LINE
8
boundary
62
5
10
6.511882
20
0.740650
11
6.554434
21
0.740650
0
LINE
8
boundary
62
5
10
6.554434
20
0.740650
11
6.602045
21
0.740650
0
LINE
8
boundary
62
5
10
6.602045
20
0.740650
11
6.649656
21
0.740650
0
LINE
8
boundary
62
5
10
6.649656
20
0.740650
11
6.713484
21
0.740650
0
LINE
8
annotation
62
1
10
6.246152
20
2.572372
11
6.246152
21
2.875593
0
LINE
8
annotation
62
1
10
6.246152
20
2.875593
11
6.178742
21
2.808165
0
LINE
8
annotation
62
1
10
6.081230
20
6.057944
11
5.918945
21
6.057944
0
LINE
8
annotation
62
1
10
5.918945
20
6.057944
11
6.068902
21
6.299355
0
LINE
8
annotation
62
1
10
6.068902
20
6.299355
11
6.068902
21
6.299355
0
LINE
8
annotation
62
1
10
6.068902
20
6.299355
11
6.069081
21
6.299577
0
LINE
8
annotation
62
1
10
6.069081
20
6.299577
11
6.069253
21
6.299801
0
LINE
8
annotation
62
1
10
6.069253
20
6.299801
11
6.069419
21
6.300028
0
LINE
8
annotation
62
1
10
6.069419
20
6.300028
11
6.069579
21
6.300261
0
LINE
8
annotation
62
1
10
6.069579
20
6.300261
11
6.069736
21
6.300502
0
LINE
8
annotation
62
1
10
6.069736
20
6.300502
11
6.069890
21
6.300752
0
LINE
8
annotation
62
1
10
6.069890
20
6.300752
11
6.070042
21
6.301014
0
LINE
8
annotation
62
1
10
6.070042
20
6.301014
11
6.070193
21
6.301288
0
LINE
8
annotation
62
1
10
6.070193
20
6.301288
11
6.070345
21
6.301578
0
LINE
8
annotation
62
1
10
6.070345
20
6.301578
11
6.070345
21
6.301578
0
LINE
8
annotation
62
1
10
6.070345
20
6.301578
11
6.076537
21
6.314872
0
LINE
8
annotation
62
1
10
6.076537
20
6.314872
11
6.080154
21
6.328653
0
LINE
8
annotation
62
1
10
6.080154
20
6.328653
11
6.081285
21
6.342608
0
LINE
8
annotation
62
1
10
6.081285
20
6.342608
11
6.080019
21
6.356427
0
LINE
8
annotation
62
1
10
6.080019
20
6.356427
11
6.076444
21
6.369799
0
LINE
8
annotation
62
1
10
6.076444
20
6.369799
11
6.070649
21
6.382411
0
LINE
8
annotation
62
1
10
6.070649
20
6.382411
11
6.062723
21
6.393953
0
LINE
8
annotation
62
1
10
6.062723
20
6.393953
11
6.052754
21
6.404112
0
LINE
8
annotation
62
1
10
6.052754
20
6.404112
11
6.040831
21
6.412579
0
LINE
8
annotation
62
1
10
6.040831
20
6.412579
11
6.040831
21
6.412579
0
LINE
8
annotation
62
1
10
6.040831
20
6.412579
11
6.027500
21
6.418683
0
LINE
8
annotation
62
1
10
6.027500
20
6.418683
11
6.013698
21
6.422244
0
LINE
8
annotation
62
1
10
6.013698
20
6.422244
11
5.999734
21
6.423343
0
LINE
8
annotation
62
1
10
5.999734
20
6.423343
11
5.985917
21
6.422060
0
LINE
8
annotation
62
1
10
5.985917
20
6.422060
11
5.972555
21
6.418476
0
LINE
8
annotation
62
1
10
5.972555
20
6.418476
11
5.959957
21
6.412669
0
LINE
8
annotation
62
1
10
5.959957
20
6.412669
11
5.948431
21
6.404721
0
LINE
8
annotation
62
1
10
5.948431
20
6.404721
11
5.938286
21
6.394711
0
LINE
8
annotation
62
1
10
5.938286
20
6.394711
11
5.929830
21
6.382721
0
LINE
8
annotation
62
1
10
5.929830
20
6.382721
11
5.919174
21
6.362280
0
LINE
8
annotation
62
1
10
6.200950
20
9.774919
11
6.259754
21
9.774919
0
LINE
8
annotation
62
1
10
6.259754
20
9.774919
11
6.259754
21
9.774919
0
LINE
8
annotation
62
1
10
6.259754
20
9.774919
11
6.270330
21
9.775867
0
LINE
8
annotation
62
1
10
6.270330
20
9.775867
11
6.280282
21
9.778602
0
LINE
8
annotation
62
1
10
6.280282
20
9.778602
11
6.289444
21
9.782954
0
LINE
8
annotation
62
1
10
6.289444
20
9.782954
11
6.297651
21
9.788756
0
LINE
8
annotation
62
1
10
6.297651
20
9.788756
11
6.304736
21
9.795840
0
LINE
8
annotation
62
1
10
6.304736
20
9.795840
11
6.310535
21
9.804038
0
LINE
8
annotation
62
1
10
6.310535
20
9.804038
11
6.314882
21
9.813183
0
LINE
8
annotation
62
1
10
6.314882
20
9.813183
11
6.317612
21
9.823106
0
LINE
8
annotation
62
1
10
6.317612
20
9.823106
11
6.318559
21
9.833640
0
LINE
8
annotation
62
1
10
6.318559
20
9.833640
11
6.318559
21
9.863084
0
LINE
8
annotation
62
1
10
6.318559
20
9.863084
11
6.318559
21
9.863084
0
LINE
8
annotation
62
1
10
6.318559
20
9.863084
11
6.317612
21
9.873614
0
LINE
8
annotation
62
1
10
6.317612
20
9.873614
11
6.314882
21
9.883535
0
LINE
8
annotation
62
1
10
6.314882
20
9.883535
11
6.310535
21
9.892679
0
LINE
8
annotation
62
1
10
6.310535
20
9.892679
11
6.304736
21
9.900877
0
LINE
8
annotation
62
1
10
6.304736
20
9.900877
11
6.297651
21
9.907963
0
LINE
8
annotation
62
1
10
6.297651
20
9.907963
11
6.289444
21
9.913767
0
LINE
8
annotation
62
1
10
6.289444
20
9.913767
11
6.280282
21
9.918121
0
LINE
8
annotation
62
1
10
6.280282
20
9.918121
11
6.270330
21
9.920856
0
LINE
8
annotation
62
1
10
6.270330
20
9.920856
11
6.259754
21
9.921806
0
LINE
8
annotation
62
1
10
6.259754
20
9.921806
11
6.230310
21
9.921806
0
LINE
8
annotation
62
1
10
6.230310
20
9.921806
11
6.259754
21
9.921806
0
LINE
8
annotation
62
1
10
6.259754
20
9.921806
11
6.259754
21
9.921806
0
LINE
8
annotation
62
1
10
6.259754
20
9.921806
11
6.270330
21
9.922755
0
LINE
8
annotation
62
1
10
6.270330
20
9.922755
11
6.280282
21
9.925493
0
LINE
8
annotation
62
1
10
6.280282
20
9.925493
11
6.289444
21
9.929851
0
LINE
8
annotation
62
1
10
6.289444
20
9.929851
11
6.297651
21
9.935663
0
LINE
8
annotation
62
1
10
6.297651
20
9.935663
11
6.304736
21
9.942762
0
LINE
8
annotation
62
1
10
6.304736
20
9.942762
11
6.310535
21
9.950982
0
LINE
8
annotation
62
1
10
6.310535
20
9.950982
11
6.314882
21
9.960155
0
LINE
8
annotation
62
1
10
6.314882
20
9.960155
11
6.317612
21
9.970114
0
LINE
8
annotation
62
1
10
6.317612
20
9.970114
11
6.318559
21
9.980693
0
LINE
8
annotation
62
1
10
6.318559
20
9.980693
11
6.318559
21
9.980693
0
LINE
8
annotation
62
1
10
6.318559
20
9.980693
11
6.317612
21
9.991223
0
LINE
8
annotation
62
1
10
6.317612
20
9.991223
11
6.314882
21
10.001144
0
LINE
8
annotation
62
1
10
6.314882
20
10.001144
11
6.310535
21
10.010288
0
LINE
8
annotation
62
1
10
6.310535
20
10.010288
11
6.304736
21
10.018487
0
LINE
8
annotation
62
1
10
6.304736
20
10.018487
11
6.297651
21
10.025572
0
LINE
8
annotation
62
1
10
6.297651
20
10.025572
11
6.289444
21
10.031376
0
LINE
8
annotation
62
1
10
6.289444
20
10.031376
11
6.280282
21
10.035730
0
LINE
8
annotation
62
1
10
6.280282
20
10.035730
11
6.270330
21
10.038466
0
LINE
8
annotation
62
1
10
6.270330
20
10.038466
11
6.259754
21
10.039415
0
LINE
8
annotation
62
1
10
6.259754
20
10.039415
11
6.200950
21
10.039415
0
LINE
8
annotation
62
1
10
6.221775
20
7.946508
11
6.111825
21
7.946508
0
LINE
8
annotation
62
1
10
6.111825
20
7.946508
11
6.221775
21
8.144527
0
LINE
8
annotation
62
1
10
6.221775
20
8.144527
11
6.111825
21
8.144527
0
LINE
8
annotation
62
1
10
6.404325
20
8.045518
11
6.296051
21
8.045518
0
LINE
8
annotation
62
1
10
6.522593
20
7.946508
11
6.522593
21
8.144527
0
LINE
8
annotation
62
1
10
6.522593
20
8.144527
11
6.478570
21
8.100493
0
LINE
8
annotation
62
1
10
6.705136
20
8.045518
11
6.596862
21
8.045518
0
LINE
8
annotation
62
1
10
6.823404
20
7.946508
11
6.823404
21
8.144527
0
LINE
8
annotation
62
1
10
6.823404
20
8.144527
11
6.779381
21
8.100493
0
LINE
8
boundary
62
5
10
7.514510
20
0.740650
11
7.583397
21
0.740650
0
LINE
8
boundary
62
5
10
7.583397
20
0.740650
11
7.696441
21
0.740650
0
LINE
8
boundary
62
5
10
7.696441
20
0.740650
11
7.703323
21
0.740650
0
LINE
8
boundary
62
5
10
7.703323
20
0.740650
11
7.713078
21
0.794528
0
LINE
8
boundary
62
5
10
7.713078
20
0.794528
11
7.733207
21
0.905650
0
LINE
8
boundary
62
5
10
7.733207
20
0.905650
11
7.755527
21
1.032739
0
LINE
8
boundary
62
5
10
7.755527
20
1.032739
11
7.762194
21
1.070650
0
LINE
8
boundary
62
5
10
7.762194
20
1.070650
11
7.810337
21
1.358136
0
LINE
8
boundary
62
5
10
7.810337
20
1.358136
11
7.816163
21
1.392851
0
LINE
8
boundary
62
5
10
7.816163
20
1.392851
11
7.856315
21
1.649412
0
LINE
8
boundary
62
5
10
7.856315
20
1.649412
11
7.867948
21
1.723732
0
LINE
8
boundary
62
5
10
7.867948
20
1.723732
11
7.868769
21
1.729391
0
LINE
8
boundary
62
5
10
7.868769
20
1.729391
11
7.916071
21
2.054615
0
LINE
8
boundary
62
5
10
7.916071
20
2.054615
11
7.920164
21
2.085170
0
LINE
8
boundary
62
5
10
7.920164
20
2.085170
11
7.958129
21
2.367733
0
LINE
8
boundary
62
5
10
7.958129
20
2.367733
11
7.958129
21
2.367733
0
LINE
8
boundary
62
5
10
7.958129
20
2.367733
11
7.939379
21
2.386483
0
LINE
8
boundary
62
5
10
7.939379
20
2.386483
11
7.687291
21
2.386483
0
LINE
8
boundary
62
5
10
7.687291
20
2.386483
11
7.667014
21
2.372935
0
LINE
8
boundary
62
5
10
7.667014
20
2.372935
11
7.643097
21
2.368177
0
LINE
8
boundary
62
5
10
7.643097
20
2.368177
11
7.619179
21
2.372935
0
LINE
8
boundary
62
5
10
7.619179
20
2.372935
11
7.598902
21
2.386483
0
LINE
8
boundary
62
5
10
7.598902
20
2.386483
11
7.585354
21
2.406759
0
LINE
8
boundary
62
5
10
7.585354
20
2.406759
11
7.580597
21
2.430677
0
LINE
8
boundary
62
5
10
7.580597
20
2.430677
11
7.585354
21
2.454595
0
LINE
8
boundary
62
5
10
7.585354
20
2.454595
11
7.598902
21
2.474871
0
LINE
8
boundary
62
5
10
7.598902
20
2.474871
11
7.598902
21
2.673095
0
LINE
8
boundary
62
5
10
7.598902
20
2.673095
11
7.585354
21
2.693371
0
LINE
8
boundary
62
5
10
7.585354
20
2.693371
11
7.580597
21
2.717289
0
LINE
8
boundary
62
5
10
7.580597
20
2.717289
11
7.585354
21
2.741206
0
LINE
8
boundary
62
5
10
7.585354
20
2.741206
11
7.598902
21
2.761483
0
LINE
8
boundary
62
5
10
7.598902
20
2.761483
11
7.619179
21
2.775031
0
LINE
8
boundary
62
5
10
7.619179
20
2.775031
11
7.643097
21
2.779789
0
LINE
8
boundary
62
5
10
7.643097
20
2.779789
11
7.667014
21
2.775031
0
LINE
8
boundary
62
5
10
7.667014
20
2.775031
11
7.687291
21
2.761483
0
LINE
8
boundary
62
5
10
7.687291
20
2.761483
11
7.989722
21
2.761483
0
LINE
8
boundary
62
5
10
7.989722
20
2.761483
11
8.008472
21
2.780233
0
LINE
8
boundary
62
5
10
8.008472
20
2.780233
11
8.008472
21
2.780233
0
LINE
8
boundary
62
5
10
8.008472
20
2.780233
11
8.012968
21
2.820751
0
LINE
8
boundary
62
5
10
8.012968
20
2.820751
11
8.042213
21
3.083471
0
LINE
8
boundary
62
5
10
8.042213
20
3.083471
11
8.053763
21
3.199874
0
LINE
8
boundary
62
5
10
8.053763
20
3.199874
11
8.077104
21
3.434269
0
LINE
8
boundary
62
5
10
8.077104
20
3.434269
11
8.089683
21
3.577999
0
LINE
8
boundary
62
5
10
8.089683
20
3.577999
11
8.107872
21
3.785066
0
LINE
8
boundary
62
5
10
8.107872
20
3.785066
11
8.120717
21
3.954477
0
LINE
8
boundary
62
5
10
8.120717
20
3.954477
11
8.134523
21
4.135863
0
LINE
8
boundary
62
5
10
8.134523
20
4.135863
11
8.146885
21
4.328617
0
LINE
8
boundary
62
5
10
8.146885
20
4.328617
11
8.157063
21
4.486661
0
LINE
8
boundary
62
5
10
8.157063
20
4.486661
11
8.168240
21
4.699742
0
LINE
8
boundary
62
5
10
8.168240
20
4.699742
11
8.175494
21
4.837459
0
LINE
8
boundary
62
5
10
8.175494
20
4.837459
11
8.184865
21
5.067216
0
LINE
8
boundary
62
5
10
8.184865
20
5.067216
11
8.189824
21
5.188256
0
LINE
8
boundary
62
5
10
8.189824
20
5.188256
11
8.196880
21
5.430512
0
LINE
8
boundary
62
5
10
8.196880
20
5.430512
11
8.200056
21
5.539054
0
LINE
8
boundary
62
5
10
8.200056
20
5.539054
11
8.204427
21
5.789267
0
LINE
8
boundary
62
5
10
8.204427
20
5.789267
11
8.206193
21
5.889851
0
LINE
8
boundary
62
5
10
8.206193
20
5.889851
11
8.207035
21
6.034400
0
LINE
8
boundary
62
5
10
8.207035
20
6.034400
11
8.188285
21
6.053150
0
LINE
8
boundary
62
5
10
8.188285
20
6.053150
11
7.788220
21
6.053150
0
LINE
8
boundary
62
5
10
7.788220
20
6.053150
11
7.767943
21
6.039601
0
LINE
8
boundary
62
5
10
7.767943
20
6.039601
11
7.744026
21
6.034844
0
LINE
8
boundary
62
5
10
7.744026
20
6.034844
11
7.720108
21
6.039601
0
LINE
8
boundary
62
5
10
7.720108
20
6.039601
11
7.699831
21
6.053150
0
LINE
8
boundary
62
5
10
7.699831
20
6.053150
11
7.686283
21
6.073426
0
LINE
8
boundary
62
5
10
7.686283
20
6.073426
11
7.681526
21
6.097344
0
LINE
8
boundary
62
5
10
7.681526
20
6.097344
11
7.686283
21
6.121261
0
LINE
8
boundary
62
5
10
7.686283
20
6.121261
11
7.699831
21
6.141538
0
LINE
8
boundary
62
5
10
7.699831
20
6.141538
11
7.699831
21
6.339761
0
LINE
8
boundary
62
5
10
7.699831
20
6.339761
11
7.686283
21
6.360038
0
LINE
8
boundary
62
5
10
7.686283
20
6.360038
11
7.681526
21
6.383955
0
LINE
8
boundary
62
5
10
7.681526
20
6.383955
11
7.686283
21
6.407873
0
LINE
8
boundary
62
5
10
7.686283
20
6.407873
11
7.699831
21
6.428150
0
LINE
8
boundary
62
5
10
7.699831
20
6.428150
11
7.720108
21
6.441698
0
LINE
8
boundary
62
5
10
7.720108
20
6.441698
11
7.744026
21
6.446455
0
LINE
8
boundary
62
5
10
7.744026
20
6.446455
11
7.767943
21
6.441698
0
LINE
8
boundary
62
5
10
7.767943
20
6.441698
11
7.788220
21
6.428150
0
LINE
8
boundary
62
5
10
7.788220
20
6.428150
11
8.188265
21
6.428150
0
LINE
8
boundary
62
5
10
8.188265
20
6.428150
11
8.207015
21
6.446900
0
LINE
8
boundary
62
5
10
8.207015
20
6.446900
11
8.207015
21
6.446900
0
LINE
8
boundary
62
5
10
8.207015
20
6.446900
11
8.206716
21
6.497288
0
LINE
8
boundary
62
5
10
8.206716
20
6.497288
11
8.206114
21
6.598159
0
LINE
8
boundary
62
5
10
8.206114
20
6.598159
11
8.201684
21
6.847317
0
LINE
8
boundary
62
5
10
8.201684
20
6.847317
11
8.199777
21
6.954092
0
LINE
8
boundary
62
5
10
8.199777
20
6.954092
11
8.192719
21
7.192548
0
LINE
8
boundary
62
5
10
8.192719
20
7.192548
11
8.189225
21
7.310025
0
LINE
8
boundary
62
5
10
8.189225
20
7.310025
11
8.179948
21
7.533961
0
LINE
8
boundary
62
5
10
8.179948
20
7.533961
11
8.174454
21
7.665959
0
LINE
8
boundary
62
5
10
8.174454
20
7.665959
11
8.163590
21
7.870161
0
LINE
8
boundary
62
5
10
8.163590
20
7.870161
11
8.155681
21
8.018138
0
LINE
8
boundary
62
5
10
8.155681
20
8.018138
11
8.144184
21
8.195863
0
LINE
8
boundary
62
5
10
8.144184
20
8.195863
11
8.133742
21
8.356548
0
LINE
8
boundary
62
5
10
8.133742
20
8.356548
11
8.121761
21
8.514286
0
LINE
8
boundary
62
5
10
8.121761
20
8.514286
11
8.107976
21
8.694959
0
LINE
8
boundary
62
5
10
8.107976
20
8.694959
11
8.096060
21
8.831550
0
LINE
8
boundary
62
5
10
8.096060
20
8.831550
11
8.078379
21
9.033369
0
LINE
8
boundary
62
5
10
8.078379
20
9.033369
11
8.067074
21
9.148102
0
LINE
8
boundary
62
5
10
8.067074
20
9.148102
11
8.044945
21
9.371779
0
LINE
8
boundary
62
5
10
8.044945
20
9.371779
11
8.034779
21
9.464342
0
LINE
8
boundary
62
5
10
8.034779
20
9.464342
11
8.008678
21
9.701066
0
LINE
8
boundary
62
5
10
8.008678
20
9.701066
11
8.008678
21
9.701066
0
LINE
8
boundary
62
5
10
8.008678
20
9.701066
11
7.989928
21
9.719816
0
LINE
8
boundary
62
5
10
7.989928
20
9.719816
11
7.687348
21
9.719816
0
LINE
8
boundary
62
5
10
7.687348
20
9.719816
11
7.667072
21
9.706268
0
LINE
8
boundary
62
5
10
7.667072
20
9.706268
11
7.643154
21
9.701510
0
LINE
8
boundary
62
5
10
7.643154
20
9.701510
11
7.619236
21
9.706268
0
LINE
8
boundary
62
5
10
7.619236
20
9.706268
11
7.598960
21
9.719816
0
LINE
8
boundary
62
5
10
7.598960
20
9.719816
11
7.585412
21
9.740093
0
LINE
8
boundary
62
5
10
7.585412
20
9.740093
11
7.580654
21
9.764010
0
LINE
8
boundary
62
5
10
7.580654
20
9.764010
11
7.585412
21
9.787928
0
LINE
8
boundary
62
5
10
7.585412
20
9.787928
11
7.598960
21
9.808205
0
LINE
8
boundary
62
5
10
7.598960
20
9.808205
11
7.598960
21
10.006428
0
LINE
8
boundary
62
5
10
7.598960
20
10.006428
11
7.585412
21
10.026704
0
LINE
8
boundary
62
5
10
7.585412
20
10.026704
11
7.580654
21
10.050622
0
LINE
8
boundary
62
5
10
7.580654
20
10.050622
11
7.585412
21
10.074540
0
LINE
8
boundary
62
5
10
7.585412
20
10.074540
11
7.598960
21
10.094816
0
LINE
8
boundary
62
5
10
7.598960
20
10.094816
11
7.619236
21
10.108365
0
LINE
8
boundary
62
5
10
7.619236
20
10.108365
11
7.643154
21
10.113122
0
LINE
8
boundary
62
5
10
7.643154
20
10.113122
11
7.667072
21
10.108365
0
LINE
8
boundary
62
5
10
7.667072
20
10.108365
11
7.687348
21
10.094816
0
LINE
8
boundary
62
5
10
7.687348
20
10.094816
11
7.939193
21
10.094816
0
LINE
8
boundary
62
5
10
7.939193
20
10.094816
11
7.957943
21
10.113566
0
LINE
8
boundary
62
5
10
7.957943
20
10.113566
11
7.957943
21
10.113566
0
LINE
8
boundary
62
5
10
7.957943
20
10.113566
11
7.921594
21
10.387009
0
LINE
8
boundary
62
5
10
7.921594
20
10.387009
11
7.917685
21
10.414197
0
LINE
8
boundary
62
5
10
7.917685
20
10.414197
11
7.872785
21
10.725419
0
LINE
8
boundary
62
5
10
7.872785
20
10.725419
11
7.871780
21
10.731904
0
LINE
8
boundary
62
5
10
7.871780
20
10.731904
11
7.856310
21
10.831314
0
LINE
8
boundary
62
5
10
7.856310
20
10.831314
11
7.822488
21
11.048799
0
LINE
8
boundary
62
5
10
7.822488
20
11.048799
11
7.820143
21
11.063830
0
LINE
8
boundary
62
5
10
7.820143
20
11.063830
11
7.814602
21
11.096956
0
LINE
8
boundary
62
5
10
7.814602
20
11.096956
11
7.763647
21
11.402240
0
LINE
8
boundary
62
5
10
7.763647
20
11.402240
11
7.741936
21
11.526024
0
LINE
8
boundary
62
5
10
7.741936
20
11.526024
11
7.733957
21
11.571445
0
LINE
8
boundary
62
5
10
7.733957
20
11.571445
11
7.713314
21
11.685449
0
LINE
8
boundary
62
5
10
7.713314
20
11.685449
11
7.703323
21
11.740650
0
LINE
8
boundary
62
5
10
7.703323
20
11.740650
11
7.696595
21
11.740650
0
LINE
8
boundary
62
5
10
7.696595
20
11.740650
11
7.586092
21
11.740650
0
LINE
8
boundary
62
5
10
7.586092
20
11.740650
11
7.517183
21
11.740650
0
LINE
8
boundary
62
5
10
7.517183
20
11.740650
11
7.474723
21
11.740650
0
LINE
8
boundary
62
5
10
7.474723
20
11.740650
11
7.336904
21
11.740650
0
LINE
8
boundary
62
5
10
7.336904
20
11.740650
11
7.274952
21
11.740650
0
LINE
8
boundary
62
5
10
7.274952
20
11.740650
11
7.222125
21
11.740650
0
LINE
8
boundary
62
5
10
7.222125
20
11.740650
11
7.191412
21
11.740650
0
LINE
8
boundary
62
5
10
7.191412
20
11.740650
11
7.191412
21
11.576813
0
LINE
8
boundary
62
5
10
7.191412
20
11.576813
11
7.191412
21
11.451954
0
LINE
8
boundary
62
5
10
7.191412
20
11.451954
11
7.191412
21
11.377983
0
LINE
8
boundary
62
5
10
7.191412
20
11.377983
11
7.191411
21
11.210092
0
LINE
8
boundary
62
5
10
7.191411
20
11.210092
11
7.191411
21
11.163257
0
LINE
8
boundary
62
5
10
7.191411
20
11.163257
11
7.191412
21
10.977676
0
LINE
8
boundary
62
5
10
7.191412
20
10.977676
11
7.191413
21
10.585858
0
LINE
8
boundary
62
5
10
7.191413
20
10.585858
11
7.191413
21
10.515128
0
LINE
8
boundary
62
5
10
7.191413
20
10.515128
11
7.191415
21
10.008455
0
LINE
8
boundary
62
5
10
7.191415
20
10.008455
11
7.191416
21
9.668608
0
LINE
8
boundary
62
5
10
7.191416
20
9.668608
11
7.191417
21
9.431051
0
LINE
8
boundary
62
5
10
7.191417
20
9.431051
11
7.191419
21
9.050062
0
LINE
8
boundary
62
5
10
7.191419
20
9.050062
11
7.191420
21
8.853652
0
LINE
8
boundary
62
5
10
7.191420
20
8.853652
11
7.191420
21
8.674104
0
LINE
8
boundary
62
5
10
7.191420
20
8.674104
11
7.191420
21
8.276257
0
LINE
8
boundary
62
5
10
7.191420
20
8.276257
11
7.191421
21
8.011628
0
LINE
8
boundary
62
5
10
7.191421
20
8.011628
11
7.191422
21
7.696616
0
LINE
8
boundary
62
5
10
7.191422
20
7.696616
11
7.191423
21
7.211952
0
LINE
8
boundary
62
5
10
7.191423
20
7.211952
11
7.191423
21
7.113961
0
LINE
8
boundary
62
5
10
7.191423
20
7.113961
11
7.191424
21
6.535477
0
LINE
8
boundary
62
5
10
7.191424
20
6.535477
11
7.191424
21
6.531291
0
LINE
8
boundary
62
5
10
7.191424
20
6.531291
11
7.191424
21
6.266492
0
LINE
8
boundary
62
5
10
7.191424
20
6.266492
11
7.191424
21
5.949199
0
LINE
8
boundary
62
5
10
7.191424
20
5.949199
11
7.191424
21
5.945013
0
LINE
8
boundary
62
5
10
7.191424
20
5.945013
11
7.191424
21
5.903066
0
LINE
8
boundary
62
5
10
7.191424
20
5.903066
11
7.191424
21
5.414612
0
LINE
8
boundary
62
5
10
7.191424
20
5.414612
11
7.191424
21
5.368124
0
LINE
8
boundary
62
5
10
7.191424
20
5.368124
11
7.191423
21
4.927681
0
LINE
8
boundary
62
5
10
7.191423
20
4.927681
11
7.191423
21
4.787065
0
LINE
8
boundary
62
5
10
7.191423
20
4.787065
11
7.191422
21
4.472855
0
LINE
8
boundary
62
5
10
7.191422
20
4.472855
11
7.191421
21
4.206019
0
LINE
8
boundary
62
5
10
7.191421
20
4.206019
11
7.191420
21
4.042303
0
LINE
8
boundary
62
5
10
7.191420
20
4.042303
11
7.191419
21
3.644882
0
LINE
8
boundary
62
5
10
7.191419
20
3.644882
11
7.191419
21
3.631087
0
LINE
8
boundary
62
5
10
7.191419
20
3.631087
11
7.191419
21
3.624982
0
LINE
8
boundary
62
5
10
7.191419
20
3.624982
11
7.191417
21
3.256753
0
LINE
8
boundary
62
5
10
7.191417
20
3.256753
11
7.191416
21
3.043951
0
LINE
8
boundary
62
5
10
7.191416
20
3.043951
11
7.191415
21
2.889797
0
LINE
8
boundary
62
5
10
7.191415
20
2.889797
11
7.191413
21
2.660728
0
LINE
8
boundary
62
5
10
7.191413
20
2.660728
11
7.191413
21
2.528615
0
LINE
8
boundary
62
5
10
7.191413
20
2.528615
11
7.191413
21
2.445617
0
LINE
8
boundary
62
5
10
7.191413
20
2.445617
11
7.191413
21
2.188048
0
LINE
8
boundary
62
5
10
7.191413
20
2.188048
11
7.191412
21
1.888074
0
LINE
8
boundary
62
5
10
7.191412
20
1.888074
11
7.191412
21
1.854859
0
LINE
8
boundary
62
5
10
7.191412
20
1.854859
11
7.191411
21
1.812084
0
LINE
8
boundary
62
5
10
7.191411
20
1.812084
11
7.191412
21
1.687950
0
LINE
8
boundary
62
5
10
7.191412
20
1.687950
11
7.191412
21
1.401806
0
LINE
8
boundary
62
5
10
7.191412
20
1.401806
11
7.191412
21
1.313410
0
LINE
8
boundary
62
5
10
7.191412
20
1.313410
11
7.191412
21
1.221570
0
LINE
8
boundary
62
5
10
7.191412
20
1.221570
11
7.191412
21
1.115376
0
LINE
8
boundary
62
5
10
7.191412
20
1.115376
11
7.191412
21
1.027031
0
LINE
8
boundary
62
5
10
7.191412
20
1.027031
11
7.191412
21
0.960443
0
LINE
8
boundary
62
5
10
7.191412
20
0.960443
11
7.191413
21
0.740650
0
LINE
8
boundary
62
5
10
7.191413
20
0.740650
11
7.245259
21
0.740650
0
LINE
8
boundary
62
5
10
7.245259
20
0.740650
11
7.278027
21
0.740650
0
LINE
8
boundary
62
5
10
7.278027
20
0.740650
11
7.291632
21
0.740650
0
LINE
8
boundary
62
5
10
7.291632
20
0.740650
11
7.334184
21
0.740650
0
LINE
8
boundary
62
5
10
7.334184
20
0.740650
11
7.471958
21
0.740650
0
LINE
8
boundary
62
5
10
7.471958
20
0.740650
11
7.514510
21
0.740650
0
LINE
8
annotation
62
1
10
7.280673
20
2.434278
11
7.280673
21
2.713688
0
LINE
8
annotation
62
1
10
7.280673
20
2.713688
11
7.218557
21
2.651554
0
LINE
8
annotation
62
1
10
7.373985
20
6.082171
11
7.233220
21
6.082171
0
LINE
8
annotation
62
1
10
7.233220
20
6.082171
11
7.363292
21
6.291571
0
LINE
8
annotation
62
1
10
7.363292
20
6.291571
11
7.363292
21
6.291571
0
LINE
8
annotation
62
1
10
7.363292
20
6.291571
11
7.363447
21
6.291763
0
LINE
8
annotation
62
1
10
7.363447
20
6.291763
11
7.363596
21
6.291957
0
LINE
8
annotation
62
1
10
7.363596
20
6.291957
11
7.363740
21
6.292154
0
LINE
8
annotation
62
1
10
7.363740
20
6.292154
11
7.363879
21
6.292357
0
LINE
8
annotation
62
1
10
7.363879
20
6.292357
11
7.364015
21
6.292565
0
LINE
8
annotation
62
1
10
7.364015
20
6.292565
11
7.364149
21
6.292782
0
LINE
8
annotation
62
1
10
7.364149
20
6.292782
11
7.364281
21
6.293009
0
LINE
8
annotation
62
1
10
7.364281
20
6.293009
11
7.364412
21
6.293247
0
LINE
8
annotation
62
1
10
7.364412
20
6.293247
11
7.364544
21
6.293499
0
LINE
8
annotation
62
1
10
7.364544
20
6.293499
11
7.364544
21
6.293499
0
LINE
8
annotation
62
1
10
7.364544
20
6.293499
11
7.369915
21
6.305030
0
LINE
8
annotation
62
1
10
7.369915
20
6.305030
11
7.373052
21
6.316983
0
LINE
8
annotation
62
1
10
7.373052
20
6.316983
11
7.374033
21
6.329088
0
LINE
8
annotation
62
1
10
7.374033
20
6.329088
11
7.372935
21
6.341075
0
LINE
8
annotation
62
1
10
7.372935
20
6.341075
11
7.369834
21
6.352673
0
LINE
8
annotation
62
1
10
7.369834
20
6.352673
11
7.364808
21
6.363613
0
LINE
8
annotation
62
1
10
7.364808
20
6.363613
11
7.357932
21
6.373624
0
LINE
8
annotation
62
1
10
7.357932
20
6.373624
11
7.349285
21
6.382437
0
LINE
8
annotation
62
1
10
7.349285
20
6.382437
11
7.338943
21
6.389781
0
LINE
8
annotation
62
1
10
7.338943
20
6.389781
11
7.338943
21
6.389781
0
LINE
8
annotation
62
1
10
7.338943
20
6.389781
11
7.327380
21
6.395075
0
LINE
8
annotation
62
1
10
7.327380
20
6.395075
11
7.315408
21
6.398164
0
LINE
8
annotation
62
1
10
7.315408
20
6.398164
11
7.303296
21
6.399118
0
LINE
8
annotation
62
1
10
7.303296
20
6.399118
11
7.291311
21
6.398005
0
LINE
8
annotation
62
1
10
7.291311
20
6.398005
11
7.279721
21
6.394895
0
LINE
8
annotation
62
1
10
7.279721
20
6.394895
11
7.268794
21
6.389859
0
LINE
8
annotation
62
1
10
7.268794
20
6.389859
11
7.258796
21
6.382965
0
LINE
8
annotation
62
1
10
7.258796
20
6.382965
11
7.249996
21
6.374282
0
LINE
8
annotation
62
1
10
7.249996
20
6.374282
11
7.242661
21
6.363882
0
LINE
8
annotation
62
1
10
7.242661
20
6.363882
11
7.233418
21
6.346152
0
LINE
8
annotation
62
1
10
7.224896
20
9.930281
11
7.281319
21
9.930281
0
LINE
8
annotation
62
1
10
7.281319
20
9.930281
11
7.281319
21
9.930281
0
LINE
8
annotation
62
1
10
7.281319
20
9.930281
11
7.291467
21
9.931191
0
LINE
8
annotation
62
1
10
7.291467
20
9.931191
11
7.301016
21
9.933815
0
LINE
8
annotation
62
1
10
7.301016
20
9.933815
11
7.309807
21
9.937990
0
LINE
8
annotation
62
1
10
7.309807
20
9.937990
11
7.317681
21
9.943557
0
LINE
8
annotation
62
1
10
7.317681
20
9.943557
11
7.324479
21
9.950355
0
LINE
8
annotation
62
1
10
7.324479
20
9.950355
11
7.330044
21
9.958221
0
LINE
8
annotation
62
1
10
7.330044
20
9.958221
11
7.334215
21
9.966995
0
LINE
8
annotation
62
1
10
7.334215
20
9.966995
11
7.336834
21
9.976517
0
LINE
8
annotation
62
1
10
7.336834
20
9.976517
11
7.337742
21
9.986624
0
LINE
8
annotation
62
1
10
7.337742
20
9.986624
11
7.337742
21
10.014875
0
LINE
8
annotation
62
1
10
7.337742
20
10.014875
11
7.337742
21
10.014875
0
LINE
8
annotation
62
1
10
7.337742
20
10.014875
11
7.336834
21
10.024979
0
LINE
8
annotation
62
1
10
7.336834
20
10.024979
11
7.334215
21
10.034498
0
LINE
8
annotation
62
1
10
7.334215
20
10.034498
11
7.330044
21
10.043271
0
LINE
8
annotation
62
1
10
7.330044
20
10.043271
11
7.324479
21
10.051138
0
LINE
8
annotation
62
1
10
7.324479
20
10.051138
11
7.317681
21
10.057937
0
LINE
8
annotation
62
1
10
7.317681
20
10.057937
11
7.309807
21
10.063506
0
LINE
8
annotation
62
1
10
7.309807
20
10.063506
11
7.301016
21
10.067683
0
LINE
8
annotation
62
1
10
7.301016
20
10.067683
11
7.291467
21
10.070308
0
LINE
8
annotation
62
1
10
7.291467
20
10.070308
11
7.281319
21
10.071219
0
LINE
8
annotation
62
1
10
7.281319
20
10.071219
11
7.253068
21
10.071219
0
LINE
8
annotation
62
1
10
7.253068
20
10.071219
11
7.281319
21
10.071219
0
LINE
8
annotation
62
1
10
7.281319
20
10.071219
11
7.281319
21
10.071219
0
LINE
8
annotation
62
1
10
7.281319
20
10.071219
11
7.291467
21
10.072130
0
LINE
8
annotation
62
1
10
7.291467
20
10.072130
11
7.301016
21
10.074756
0
LINE
8
annotation
62
1
10
7.301016
20
10.074756
11
7.309807
21
10.078938
0
LINE
8
annotation
62
1
10
7.309807
20
10.078938
11
7.317681
21
10.084515
0
LINE
8
annotation
62
1
10
7.317681
20
10.084515
11
7.324479
21
10.091327
0
LINE
8
annotation
62
1
10
7.324479
20
10.091327
11
7.330044
21
10.099214
0
LINE
8
annotation
62
1
10
7.330044
20
10.099214
11
7.334215
21
10.108015
0
LINE
8
annotation
62
1
10
7.334215
20
10.108015
11
7.336834
21
10.117571
0
LINE
8
annotation
62
1
10
7.336834
20
10.117571
11
7.337742
21
10.127722
0
LINE
8
annotation
62
1
10
7.337742
20
10.127722
11
7.337742
21
10.127722
0
LINE
8
annotation
62
1
10
7.337742
20
10.127722
11
7.336834
21
10.137825
0
LINE
8
annotation
62
1
10
7.336834
20
10.137825
11
7.334215
21
10.147344
0
LINE
8
annotation
62
1
10
7.334215
20
10.147344
11
7.330044
21
10.156118
0
LINE
8
annotation
62
1
10
7.330044
20
10.156118
11
7.324479
21
10.163984
0
LINE
8
annotation
62
1
10
7.324479
20
10.163984
11
7.317681
21
10.170783
0
LINE
8
annotation
62
1
10
7.317681
20
10.170783
11
7.309807
21
10.176352
0
LINE
8
annotation
62
1
10
7.309807
20
10.176352
11
7.301016
21
10.180529
0
LINE
8
annotation
62
1
10
7.301016
20
10.180529
11
7.291467
21
10.183154
0
LINE
8
annotation
62
1
10
7.291467
20
10.183154
11
7.281319
21
10.184065
0
LINE
8
annotation
62
1
10
7.281319
20
10.184065
11
7.224896
21
10.184065
0
LINE
8
annotation
62
1
10
7.522933
20
4.343304
11
7.467958
21
4.343304
0
LINE
8
annotation
62
1
10
7.467958
20
4.343304
11
7.522933
21
4.442314
0
LINE
8
annotation
62
1
10
7.522933
20
4.442314
11
7.467958
21
4.442314
0
LINE
8
annotation
62
1
10
7.614208
20
4.392809
11
7.560072
21
4.392809
0
LINE
8
annotation
62
1
10
7.673342
20
4.343304
11
7.673342
21
4.442314
0
LINE
8
annotation
62
1
10
7.673342
20
4.442314
11
7.651331
21
4.420296
0
LINE
8
annotation
62
1
10
7.764614
20
4.392809
11
7.710477
21
4.392809
0
LINE
8
annotation
62
1
10
7.845713
20
4.343303
11
7.801741
21
4.343303
0
LINE
8
annotation
62
1
10
7.801741
20
4.343303
11
7.842373
21
4.408715
0
LINE
8
annotation
62
1
10
7.842373
20
4.408715
11
7.842373
21
4.408715
0
LINE
8
annotation
62
1
10
7.842373
20
4.408715
11
7.842422
21
4.408776
0
LINE
8
annotation
62
1
10
7.842422
20
4.408776
11
7.842468
21
4.408836
0
LINE
8
annotation
62
1
10
7.842468
20
4.408836
11
7.842513
21
4.408898
0
LINE
8
annotation
62
1
10
7.842513
20
4.408898
11
7.842557
21
4.408961
0
LINE
8
annotation
62
1
10
7.842557
20
4.408961
11
7.842599
21
4.409026
0
LINE
8
annotation
62
1
10
7.842599
20
4.409026
11
7.842641
21
4.409094
0
LINE
8
annotation
62
1
10
7.842641
20
4.409094
11
7.842682
21
4.409165
0
LINE
8
annotation
62
1
10
7.842682
20
4.409165
11
7.842723
21
4.409239
0
LINE
8
annotation
62
1
10
7.842723
20
4.409239
11
7.842764
21
4.409318
0
LINE
8
annotation
62
1
10
7.842764
20
4.409318
11
7.842764
21
4.409318
0
LINE
8
annotation
62
1
10
7.842764
20
4.409318
11
7.844442
21
4.412920
0
LINE
8
annotation
62
1
10
7.844442
20
4.412920
11
7.845422
21
4.416654
0
LINE
8
annotation
62
1
10
7.845422
20
4.416654
11
7.845728
21
4.420435
0
LINE
8
annotation
62
1
10
7.845728
20
4.420435
11
7.845385
21
4.424180
0
LINE
8
annotation
62
1
10
7.845385
20
4.424180
11
7.844417
21
4.427803
0
LINE
8
annotation
62
1
10
7.844417
20
4.427803
11
7.842846
21
4.431220
0
LINE
8
annotation
62
1
10
7.842846
20
4.431220
11
7.840699
21
4.434347
0
LINE
8
annotation
62
1
10
7.840699
20
4.434347
11
7.837998
21
4.437100
0
LINE
8
annotation
62
1
10
7.837998
20
4.437100
11
7.834767
21
4.439394
0
LINE
8
annotation
62
1
10
7.834767
20
4.439394
11
7.834767
21
4.439394
0
LINE
8
annotation
62
1
10
7.834767
20
4.439394
11
7.831155
21
4.441048
0
LINE
8
annotation
62
1
10
7.831155
20
4.441048
11
7.827415
21
4.442013
0
LINE
8
annotation
62
1
10
7.827415
20
4.442013
11
7.823631
21
4.442311
0
LINE
8
annotation
62
1
10
7.823631
20
4.442311
11
7.819888
21
4.441963
0
LINE
8
annotation
62
1
10
7.819888
20
4.441963
11
7.816267
21
4.440992
0
LINE
8
annotation
62
1
10
7.816267
20
4.440992
11
7.812853
21
4.439419
0
LINE
8
annotation
62
1
10
7.812853
20
4.439419
11
7.809730
21
4.437265
0
LINE
8
annotation
62
1
10
7.809730
20
4.437265
11
7.806981
21
4.434553
0
LINE
8
annotation
62
1
10
7.806981
20
4.434553
11
7.804690
21
4.431304
0
LINE
8
annotation
62
1
10
7.804690
20
4.431304
11
7.801803
21
4.425766
0
LINE
8
boundary
62
5
10
9.032497
20
2.045247
11
9.044620
21
2.132915
0
LINE
8
boundary
62
5
10
9.044620
20
2.132915
11
9.064925
21
2.290078
0
LINE
8
boundary
62
5
10
9.064925
20
2.290078
11
9.074958
21
2.367733
0
LINE
8
boundary
62
5
10
9.074958
20
2.367733
11
9.074958
21
2.367733
0
LINE
8
boundary
62
5
10
9.074958
20
2.367733
11
9.056208
21
2.386483
0
LINE
8
boundary
62
5
10
9.056208
20
2.386483
11
8.816017
21
2.386483
0
LINE
8
boundary
62
5
10
8.816017
20
2.386483
11
8.795741
21
2.372935
0
LINE
8
boundary
62
5
10
8.795741
20
2.372935
11
8.771823
21
2.368177
0
LINE
8
boundary
62
5
10
8.771823
20
2.368177
11
8.747905
21
2.372935
0
LINE
8
boundary
62
5
10
8.747905
20
2.372935
11
8.727629
21
2.386483
0
LINE
8
boundary
62
5
10
8.727629
20
2.386483
11
8.714081
21
2.406759
0
LINE
8
boundary
62
5
10
8.714081
20
2.406759
11
8.709323
21
2.430677
0
LINE
8
boundary
62
5
10
8.709323
20
2.430677
11
8.714081
21
2.454595
0
LINE
8
boundary
62
5
10
8.714081
20
2.454595
11
8.727629
21
2.474871
0
LINE
8
boundary
62
5
10
8.727629
20
2.474871
11
8.727629
21
2.673095
0
LINE
8
boundary
62
5
10
8.727629
20
2.673095
11
8.714081
21
2.693371
0
LINE
8
boundary
62
5
10
8.714081
20
2.693371
11
8.709323
21
2.717289
0
LINE
8
boundary
62
5
10
8.709323
20
2.717289
11
8.714081
21
2.741206
0
LINE
8
boundary
62
5
10
8.714081
20
2.741206
11
8.727629
21
2.761483
0
LINE
8
boundary
62
5
10
8.727629
20
2.761483
11
8.747905
21
2.775031
0
LINE
8
boundary
62
5
10
8.747905
20
2.775031
11
8.771823
21
2.779789
0
LINE
8
boundary
62
5
10
8.771823
20
2.779789
11
8.795741
21
2.775031
0
LINE
8
boundary
62
5
10
8.795741
20
2.775031
11
8.816017
21
2.761483
0
LINE
8
boundary
62
5
10
8.816017
20
2.761483
11
9.105345
21
2.761483
0
LINE
8
boundary
62
5
10
9.105345
20
2.761483
11
9.124094
21
2.780233
0
LINE
8
boundary
62
5
10
9.124094
20
2.780233
11
9.124095
21
2.780233
0
LINE
8
boundary
62
5
10
9.124095
20
2.780233
11
9.142701
21
2.948138
0
LINE
8
boundary
62
5
10
9.142701
20
2.948138
11
9.146085
21
2.978675
0
LINE
8
boundary
62
5
10
9.146085
20
2.978675
11
9.150440
21
3.021545
0
LINE
8
boundary
62
5
10
9.150440
20
3.021545
11
9.174899
21
3.262325
0
LINE
8
boundary
62
5
10
9.174899
20
3.262325
11
9.193212
21
3.460639
0
LINE
8
boundary
62
5
10
9.193212
20
3.460639
11
9.201093
21
3.545975
0
LINE
8
boundary
62
5
10
9.201093
20
3.545975
11
9.209761
21
3.650268
0
LINE
8
boundary
62
5
10
9.209761
20
3.650268
11
9.224667
21
3.829625
0
LINE
8
boundary
62
5
10
9.224667
20
3.829625
11
9.237766
21
4.006953
0
LINE
8
boundary
62
5
10
9.237766
20
4.006953
11
9.245621
21
4.113275
0
LINE
8
boundary
62
5
10
9.245621
20
4.113275
11
9.251309
21
4.201272
0
LINE
8
boundary
62
5
10
9.251309
20
4.201272
11
9.263956
21
4.396925
0
LINE
8
boundary
62
5
10
9.263956
20
4.396925
11
9.278980
21
4.668098
0
LINE
8
boundary
62
5
10
9.278980
20
4.668098
11
9.279671
21
4.680575
0
LINE
8
boundary
62
5
10
9.279671
20
4.680575
11
9.280836
21
4.705805
0
LINE
8
boundary
62
5
10
9.280836
20
4.705805
11
9.292768
21
4.964225
0
LINE
8
boundary
62
5
10
9.292768
20
4.964225
11
9.296952
21
5.077517
0
LINE
8
boundary
62
5
10
9.296952
20
5.077517
11
9.303245
21
5.247875
0
LINE
8
boundary
62
5
10
9.303245
20
5.247875
11
9.308707
21
5.445077
0
LINE
8
boundary
62
5
10
9.308707
20
5.445077
11
9.311102
21
5.531525
0
LINE
8
boundary
62
5
10
9.311102
20
5.531525
11
9.315674
21
5.779085
0
LINE
8
boundary
62
5
10
9.315674
20
5.779085
11
9.316340
21
5.815175
0
LINE
8
boundary
62
5
10
9.316340
20
5.815175
11
9.318365
21
6.034400
0
LINE
8
boundary
62
5
10
9.318365
20
6.034400
11
9.318365
21
6.034400
0
LINE
8
boundary
62
5
10
9.318365
20
6.034400
11
9.299615
21
6.053150
0
LINE
8
boundary
62
5
10
9.299615
20
6.053150
11
8.914488
21
6.053150
0
LINE
8
boundary
62
5
10
8.914488
20
6.053150
11
8.894212
21
6.039601
0
LINE
8
boundary
62
5
10
8.894212
20
6.039601
11
8.870294
21
6.034844
0
LINE
8
boundary
62
5
10
8.870294
20
6.034844
11
8.846376
21
6.039601
0
LINE
8
boundary
62
5
10
8.846376
20
6.039601
11
8.826100
21
6.053150
0
LINE
8
boundary
62
5
10
8.826100
20
6.053150
11
8.812551
21
6.073426
0
LINE
8
boundary
62
5
10
8.812551
20
6.073426
11
8.807794
21
6.097344
0
LINE
8
boundary
62
5
10
8.807794
20
6.097344
11
8.812551
21
6.121261
0
LINE
8
boundary
62
5
10
8.812551
20
6.121261
11
8.826100
21
6.141538
0
LINE
8
boundary
62
5
10
8.826100
20
6.141538
11
8.826100
21
6.339761
0
LINE
8
boundary
62
5
10
8.826100
20
6.339761
11
8.812551
21
6.360038
0
LINE
8
boundary
62
5
10
8.812551
20
6.360038
11
8.807794
21
6.383955
0
LINE
8
boundary
62
5
10
8.807794
20
6.383955
11
8.812551
21
6.407873
0
LINE
8
boundary
62
5
10
8.812551
20
6.407873
11
8.826100
21
6.428150
0
LINE
8
boundary
62
5
10
8.826100
20
6.428150
11
8.846376
21
6.441698
0
LINE
8
boundary
62
5
10
8.846376
20
6.441698
11
8.870294
21
6.446455
0
LINE
8
boundary
62
5
10
8.870294
20
6.446455
11
8.894212
21
6.441698
0
LINE
8
boundary
62
5
10
8.894212
20
6.441698
11
8.914488
21
6.428150
0
LINE
8
boundary
62
5
10
8.914488
20
6.428150
11
9.299615
21
6.428150
0
LINE
8
boundary
62
5
10
9.299615
20
6.428150
11
9.318365
21
6.446900
0
LINE
8
boundary
62
5
10
9.318365
20
6.446900
11
9.318365
21
6.446900
0
LINE
8
boundary
62
5
10
9.318365
20
6.446900
11
9.316587
21
6.638465
0
LINE
8
boundary
62
5
10
9.316587
20
6.638465
11
9.316311
21
6.668209
0
LINE
8
boundary
62
5
10
9.316311
20
6.668209
11
9.312181
21
6.890840
0
LINE
8
boundary
62
5
10
9.312181
20
6.890840
11
9.311028
21
6.952970
0
LINE
8
boundary
62
5
10
9.311028
20
6.952970
11
9.306073
21
7.131061
0
LINE
8
boundary
62
5
10
9.306073
20
7.131061
11
9.303105
21
7.237732
0
LINE
8
boundary
62
5
10
9.303105
20
7.237732
11
9.298517
21
7.361430
0
LINE
8
boundary
62
5
10
9.298517
20
7.361430
11
9.292542
21
7.522494
0
LINE
8
boundary
62
5
10
9.292542
20
7.522494
11
9.289698
21
7.583833
0
LINE
8
boundary
62
5
10
9.289698
20
7.583833
11
9.280836
21
7.774955
0
LINE
8
boundary
62
5
10
9.280836
20
7.774955
11
9.279702
21
7.799423
0
LINE
8
boundary
62
5
10
9.279702
20
7.799423
11
9.279339
21
7.807255
0
LINE
8
boundary
62
5
10
9.279339
20
7.807255
11
9.268334
21
8.005184
0
LINE
8
boundary
62
5
10
9.268334
20
8.005184
11
9.263619
21
8.089991
0
LINE
8
boundary
62
5
10
9.263619
20
8.089991
11
9.256093
21
8.206178
0
LINE
8
boundary
62
5
10
9.256093
20
8.206178
11
9.245428
21
8.370811
0
LINE
8
boundary
62
5
10
9.245428
20
8.370811
11
9.243010
21
8.403522
0
LINE
8
boundary
62
5
10
9.243010
20
8.403522
11
9.237767
21
8.474452
0
LINE
8
boundary
62
5
10
9.237767
20
8.474452
11
9.228947
21
8.593776
0
LINE
8
boundary
62
5
10
9.228947
20
8.593776
11
9.224670
21
8.651631
0
LINE
8
boundary
62
5
10
9.224670
20
8.651631
11
9.214058
21
8.779403
0
LINE
8
boundary
62
5
10
9.214058
20
8.779403
11
9.201345
21
8.932450
0
LINE
8
boundary
62
5
10
9.201345
20
8.932450
11
9.198445
21
8.963902
0
LINE
8
boundary
62
5
10
9.198445
20
8.963902
11
9.193213
21
9.020637
0
LINE
8
boundary
62
5
10
9.193213
20
9.020637
11
9.181645
21
9.146111
0
LINE
8
boundary
62
5
10
9.181645
20
9.146111
11
9.175452
21
9.213271
0
LINE
8
boundary
62
5
10
9.175452
20
9.213271
11
9.163905
21
9.327202
0
LINE
8
boundary
62
5
10
9.163905
20
9.327202
11
9.146991
21
9.494090
0
LINE
8
boundary
62
5
10
9.146991
20
9.494090
11
9.145415
21
9.508353
0
LINE
8
boundary
62
5
10
9.145415
20
9.508353
11
9.142700
21
9.532916
0
LINE
8
boundary
62
5
10
9.142700
20
9.532916
11
9.126092
21
9.683236
0
LINE
8
boundary
62
5
10
9.126092
20
9.683236
11
9.124122
21
9.701066
0
LINE
8
boundary
62
5
10
9.124122
20
9.701066
11
9.124122
21
9.701066
0
LINE
8
boundary
62
5
10
9.124122
20
9.701066
11
9.105372
21
9.719816
0
LINE
8
boundary
62
5
10
9.105372
20
9.719816
11
8.816034
21
9.719816
0
LINE
8
boundary
62
5
10
8.816034
20
9.719816
11
8.795758
21
9.706268
0
LINE
8
boundary
62
5
10
8.795758
20
9.706268
11
8.771840
21
9.701510
0
LINE
8
boundary
62
5
10
8.771840
20
9.701510
11
8.747923
21
9.706268
0
LINE
8
boundary
62
5
10
8.747923
20
9.706268
11
8.727646
21
9.719816
0
LINE
8
boundary
62
5
10
8.727646
20
9.719816
11
8.714098
21
9.740093
0
LINE
8
boundary
62
5
10
8.714098
20
9.740093
11
8.709340
21
9.764010
0
LINE
8
boundary
62
5
10
8.709340
20
9.764010
11
8.714098
21
9.787928
0
LINE
8
boundary
62
5
10
8.714098
20
9.787928
11
8.727646
21
9.808205
0
LINE
8
boundary
62
5
10
8.727646
20
9.808205
11
8.727646
21
10.006428
0
LINE
8
boundary
62
5
10
8.727646
20
10.006428
11
8.714098
21
10.026704
0
LINE
8
boundary
62
5
10
8.714098
20
10.026704
11
8.709340
21
10.050622
0
LINE
8
boundary
62
5
10
8.709340
20
10.050622
11
8.714098
21
10.074540
0
LINE
8
boundary
62
5
10
8.714098
20
10.074540
11
8.727646
21
10.094816
0
LINE
8
boundary
62
5
10
8.727646
20
10.094816
11
8.747923
21
10.108365
0
LINE
8
boundary
62
5
10
8.747923
20
10.108365
11
8.771840
21
10.113122
0
LINE
8
boundary
62
5
10
8.771840
20
10.113122
11
8.795758
21
10.108365
0
LINE
8
boundary
62
5
10
8.795758
20
10.108365
11
8.816034
21
10.094816
0
LINE
8
boundary
62
5
10
8.816034
20
10.094816
11
9.056167
21
10.094816
0
LINE
8
boundary
62
5
10
9.056167
20
10.094816
11
9.074917
21
10.113566
0
LINE
8
boundary
62
5
10
9.074917
20
10.113566
11
9.074917
21
10.113566
0
LINE
8
boundary
62
5
10
9.074917
20
10.113566
11
9.063404
21
10.202975
0
LINE
8
boundary
62
5
10
9.063404
20
10.202975
11
9.046201
21
10.336550
0
LINE
8
boundary
62
5
10
9.046201
20
10.336550
11
9.040851
21
10.375338
0
LINE
8
boundary
62
5
10
9.040851
20
10.375338
11
9.032496
21
10.435910
0
LINE
8
boundary
62
5
10
9.032496
20
10.435910
11
9.017394
21
10.545418
0
LINE
8
boundary
62
5
10
9.017394
20
10.545418
11
9.007470
21
10.617371
0
LINE
8
boundary
62
5
10
9.007470
20
10.617371
11
8.993083
21
10.715198
0
LINE
8
boundary
62
5
10
8.993083
20
10.715198
11
8.970541
21
10.868459
0
LINE
8
boundary
62
5
10
8.970541
20
10.868459
11
8.967900
21
10.886417
0
LINE
8
boundary
62
5
10
8.967900
20
10.886417
11
8.966169
21
10.898190
0
LINE
8
boundary
62
5
10
8.966169
20
10.898190
11
8.941794
21
11.054241
0
LINE
8
boundary
62
5
10
8.941794
20
11.054241
11
8.922304
21
11.179011
0
LINE
8
boundary
62
5
10
8.922304
20
11.179011
11
8.914787
21
11.224468
0
LINE
8
boundary
62
5
10
8.914787
20
11.224468
11
8.903228
21
11.294369
0
LINE
8
boundary
62
5
10
8.903228
20
11.294369
11
8.875870
21
11.459830
0
LINE
8
boundary
62
5
10
8.875870
20
11.459830
11
8.872500
21
11.479398
0
LINE
8
boundary
62
5
10
8.872500
20
11.479398
11
8.867340
21
11.509364
0
LINE
8
boundary
62
5
10
8.867340
20
11.509364
11
8.857928
21
11.564026
0
LINE
8
boundary
62
5
10
8.857928
20
11.564026
11
8.851692
21
11.600240
0
LINE
8
boundary
62
5
10
8.851692
20
11.600240
11
8.829830
21
11.723913
0
LINE
8
boundary
62
5
10
8.829830
20
11.723913
11
8.826872
21
11.740650
0
LINE
8
boundary
62
5
10
8.826872
20
11.740650
11
8.823582
21
11.740650
0
LINE
8
boundary
62
5
10
8.823582
20
11.740650
11
8.731666
21
11.740650
0
LINE
8
boundary
62
5
10
8.731666
20
11.740650
11
8.661634
21
11.740650
0
LINE
8
boundary
62
5
10
8.661634
20
11.740650
11
8.578950
21
11.740650
0
LINE
8
boundary
62
5
10
8.578950
20
11.740650
11
8.551388
21
11.740650
0
LINE
8
boundary
62
5
10
8.551388
20
11.740650
11
8.496266
21
11.740650
0
LINE
8
boundary
62
5
10
8.496266
20
11.740650
11
8.365012
21
11.740650
0
LINE
8
boundary
62
5
10
8.365012
20
11.740650
11
8.333239
21
11.740650
0
LINE
8
boundary
62
5
10
8.333239
20
11.740650
11
8.333239
21
11.682221
0
LINE
8
boundary
62
5
10
8.333239
20
11.682221
11
8.333240
21
11.451954
0
LINE
8
boundary
62
5
10
8.333240
20
11.451954
11
8.333240
21
11.433507
0
LINE
8
boundary
62
5
10
8.333240
20
11.433507
11
8.333241
21
11.313877
0
LINE
8
boundary
62
5
10
8.333241
20
11.313877
11
8.333241
21
11.163258
0
LINE
8
boundary
62
5
10
8.333241
20
11.163258
11
8.333242
21
10.870337
0
LINE
8
boundary
62
5
10
8.333242
20
10.870337
11
8.333242
21
10.585858
0
LINE
8
boundary
62
5
10
8.333242
20
10.585858
11
8.333242
21
10.259940
0
LINE
8
boundary
62
5
10
8.333242
20
10.259940
11
8.333243
21
10.008455
0
LINE
8
boundary
62
5
10
8.333243
20
10.008455
11
8.333243
21
9.480858
0
LINE
8
boundary
62
5
10
8.333243
20
9.480858
11
8.333243
21
9.431051
0
LINE
8
boundary
62
5
10
8.333243
20
9.431051
11
8.333243
21
9.253421
0
LINE
8
boundary
62
5
10
8.333243
20
9.253421
11
8.333242
21
8.853652
0
LINE
8
boundary
62
5
10
8.333242
20
8.853652
11
8.333242
21
8.755669
0
LINE
8
boundary
62
5
10
8.333242
20
8.755669
11
8.333242
21
8.276257
0
LINE
8
boundary
62
5
10
8.333242
20
8.276257
11
8.333242
21
8.070077
0
LINE
8
boundary
62
5
10
8.333242
20
8.070077
11
8.333242
21
7.696616
0
LINE
8
boundary
62
5
10
8.333242
20
7.696616
11
8.333242
21
7.413413
0
LINE
8
boundary
62
5
10
8.333242
20
7.413413
11
8.333242
21
7.113961
0
LINE
8
boundary
62
5
10
8.333242
20
7.113961
11
8.333242
21
6.784343
0
LINE
8
boundary
62
5
10
8.333242
20
6.784343
11
8.333242
21
6.531291
0
LINE
8
boundary
62
5
10
8.333242
20
6.531291
11
8.333242
21
6.182283
0
LINE
8
boundary
62
5
10
8.333242
20
6.182283
11
8.333241
21
5.949199
0
LINE
8
boundary
62
5
10
8.333241
20
5.949199
11
8.333241
21
5.604745
0
LINE
8
boundary
62
5
10
8.333241
20
5.604745
11
8.333241
21
5.368124
0
LINE
8
boundary
62
5
10
8.333241
20
5.368124
11
8.333241
21
5.048562
0
LINE
8
boundary
62
5
10
8.333241
20
5.048562
11
8.333241
21
4.787065
0
LINE
8
boundary
62
5
10
8.333241
20
4.787065
11
8.333241
21
4.510919
0
LINE
8
boundary
62
5
10
8.333241
20
4.510919
11
8.333241
21
4.206019
0
LINE
8
boundary
62
5
10
8.333241
20
4.206019
11
8.333241
21
3.989666
0
LINE
8
boundary
62
5
10
8.333241
20
3.989666
11
8.333242
21
3.624982
0
LINE
8
boundary
62
5
10
8.333242
20
3.624982
11
8.333242
21
3.482835
0
LINE
8
boundary
62
5
10
8.333242
20
3.482835
11
8.333241
21
3.043951
0
LINE
8
boundary
62
5
10
8.333241
20
3.043951
11
8.333241
21
2.987335
0
LINE
8
boundary
62
5
10
8.333241
20
2.987335
11
8.333241
21
2.722013
0
LINE
8
boundary
62
5
10
8.333241
20
2.722013
11
8.333241
21
2.496492
0
LINE
8
boundary
62
5
10
8.333241
20
2.496492
11
8.333241
21
2.445617
0
LINE
8
boundary
62
5
10
8.333241
20
2.445617
11
8.333241
21
2.044389
0
LINE
8
boundary
62
5
10
8.333241
20
2.044389
11
8.333241
21
1.888074
0
LINE
8
boundary
62
5
10
8.333241
20
1.888074
11
8.333241
21
1.409101
0
LINE
8
boundary
62
5
10
8.333241
20
1.409101
11
8.333241
21
1.313410
0
LINE
8
boundary
62
5
10
8.333241
20
1.313410
11
8.333241
21
1.151115
0
LINE
8
boundary
62
5
10
8.333241
20
1.151115
11
8.333241
21
1.027031
0
LINE
8
boundary
62
5
10
8.333241
20
1.027031
11
8.333240
21
0.789720
0
LINE
8
boundary
62
5
10
8.333240
20
0.789720
11
8.333240
21
0.740650
0
LINE
8
boundary
62
5
10
8.333240
20
0.740650
11
8.336411
21
0.740650
0
LINE
8
boundary
62
5
10
8.336411
20
0.740650
11
8.488717
21
0.740650
0
LINE
8
boundary
62
5
10
8.488717
20
0.740650
11
8.549150
21
0.740650
0
LINE
8
boundary
62
5
10
8.549150
20
0.740650
11
8.579367
21
0.740650
0
LINE
8
boundary
62
5
10
8.579367
20
0.740650
11
8.670017
21
0.740650
0
LINE
8
boundary
62
5
10
8.670017
20
0.740650
11
8.729476
21
0.740650
0
LINE
8
boundary
62
5
10
8.729476
20
0.740650
11
8.822810
21
0.740650
0
LINE
8
boundary
62
5
10
8.822810
20
0.740650
11
8.826872
21
0.740650
0
LINE
8
boundary
62
5
10
8.826872
20
0.740650
11
8.827594
21
0.744733
0
LINE
8
boundary
62
5
10
8.827594
20
0.744733
11
8.829830
21
0.757383
0
LINE
8
boundary
62
5
10
8.829830
20
0.757383
11
8.851327
21
0.878972
0
LINE
8
boundary
62
5
10
8.851327
20
0.878972
11
8.867341
21
0.971912
0
LINE
8
boundary
62
5
10
8.867341
20
0.971912
11
8.875160
21
1.017295
0
LINE
8
boundary
62
5
10
8.875160
20
1.017295
11
8.903228
21
1.186869
0
LINE
8
boundary
62
5
10
8.903228
20
1.186869
11
8.921269
21
1.295856
0
LINE
8
boundary
62
5
10
8.921269
20
1.295856
11
8.954209
21
1.506415
0
LINE
8
boundary
62
5
10
8.954209
20
1.506415
11
8.964920
21
1.574876
0
LINE
8
boundary
62
5
10
8.964920
20
1.574876
11
8.970542
21
1.613032
0
LINE
8
boundary
62
5
10
8.970542
20
1.613032
11
9.006038
21
1.853896
0
LINE
8
boundary
62
5
10
9.006038
20
1.853896
11
9.032497
21
2.045247
0
LINE
8
annotation
62
1
10
8.419630
20
2.588770
11
8.419630
21
2.859196
0
LINE
8
annotation
62
1
10
8.419630
20
2.859196
11
8.359511
21
2.799060
0
LINE
8
annotation
62
1
10
8.510219
20
6.087018
11
8.373759
21
6.087018
0
LINE
8
annotation
62
1
10
8.373759
20
6.087018
11
8.499853
21
6.290013
0
LINE
8
annotation
62
1
10
8.499853
20
6.290013
11
8.499853
21
6.290013
0
LINE
8
annotation
62
1
10
8.499853
20
6.290013
11
8.500004
21
6.290200
0
LINE
8
annotation
62
1
10
8.500004
20
6.290200
11
8.500148
21
6.290388
0
LINE
8
annotation
62
1
10
8.500148
20
6.290388
11
8.500288
21
6.290579
0
LINE
8
annotation
62
1
10
8.500288
20
6.290579
11
8.500423
21
6.290775
0
LINE
8
annotation
62
1
10
8.500423
20
6.290775
11
8.500554
21
6.290978
0
LINE
8
annotation
62
1
10
8.500554
20
6.290978
11
8.500684
21
6.291188
0
LINE
8
annotation
62
1
10
8.500684
20
6.291188
11
8.500812
21
6.291408
0
LINE
8
annotation
62
1
10
8.500812
20
6.291408
11
8.500939
21
6.291639
0
LINE
8
annotation
62
1
10
8.500939
20
6.291639
11
8.501067
21
6.291882
0
LINE
8
annotation
62
1
10
8.501067
20
6.291882
11
8.501067
21
6.291882
0
LINE
8
annotation
62
1
10
8.501067
20
6.291882
11
8.506273
21
6.303061
0
LINE
8
annotation
62
1
10
8.506273
20
6.303061
11
8.509315
21
6.314648
0
LINE
8
annotation
62
1
10
8.509315
20
6.314648
11
8.510266
21
6.326383
0
LINE
8
annotation
62
1
10
8.510266
20
6.326383
11
8.509201
21
6.338003
0
LINE
8
annotation
62
1
10
8.509201
20
6.338003
11
8.506195
21
6.349247
0
LINE
8
annotation
62
1
10
8.506195
20
6.349247
11
8.501322
21
6.359852
0
LINE
8
annotation
62
1
10
8.501322
20
6.359852
11
8.494657
21
6.369557
0
LINE
8
annotation
62
1
10
8.494657
20
6.369557
11
8.486275
21
6.378100
0
LINE
8
annotation
62
1
10
8.486275
20
6.378100
11
8.476249
21
6.385220
0
LINE
8
annotation
62
1
10
8.476249
20
6.385220
11
8.476249
21
6.385220
0
LINE
8
annotation
62
1
10
8.476249
20
6.385220
11
8.465039
21
6.390352
0
LINE
8
annotation
62
1
10
8.465039
20
6.390352
11
8.453434
21
6.393347
0
LINE
8
annotation
62
1
10
8.453434
20
6.393347
11
8.441692
21
6.394271
0
LINE
8
annotation
62
1
10
8.441692
20
6.394271
11
8.430074
21
6.393192
0
LINE
8
annotation
62
1
10
8.430074
20
6.393192
11
8.418838
21
6.390178
0
LINE
8
annotation
62
1
10
8.418838
20
6.390178
11
8.408245
21
6.385295
0
LINE
8
annotation
62
1
10
8.408245
20
6.385295
11
8.398553
21
6.378612
0
LINE
8
annotation
62
1
10
8.398553
20
6.378612
11
8.390022
21
6.370195
0
LINE
8
annotation
62
1
10
8.390022
20
6.370195
11
8.382912
21
6.360113
0
LINE
8
annotation
62
1
10
8.382912
20
6.360113
11
8.373952
21
6.342925
0
LINE
8
annotation
62
1
10
8.365644
20
9.934377
11
8.420248
21
9.934377
0
LINE
8
annotation
62
1
10
8.420248
20
9.934377
11
8.420248
21
9.934377
0
LINE
8
annotation
62
1
10
8.420248
20
9.934377
11
8.430068
21
9.935258
0
LINE
8
annotation
62
1
10
8.430068
20
9.935258
11
8.439309
21
9.937797
0
LINE
8
annotation
62
1
10
8.439309
20
9.937797
11
8.447816
21
9.941838
0
LINE
8
annotation
62
1
10
8.447816
20
9.941838
11
8.455437
21
9.947226
0
LINE
8
annotation
62
1
10
8.455437
20
9.947226
11
8.462016
21
9.953804
0
LINE
8
annotation
62
1
10
8.462016
20
9.953804
11
8.467401
21
9.961416
0
LINE
8
annotation
62
1
10
8.467401
20
9.961416
11
8.471438
21
9.969908
0
LINE
8
annotation
62
1
10
8.471438
20
9.969908
11
8.473972
21
9.979122
0
LINE
8
annotation
62
1
10
8.473972
20
9.979122
11
8.474851
21
9.988904
0
LINE
8
annotation
62
1
10
8.474851
20
9.988904
11
8.474851
21
10.016244
0
LINE
8
annotation
62
1
10
8.474851
20
10.016244
11
8.474851
21
10.016244
0
LINE
8
annotation
62
1
10
8.474851
20
10.016244
11
8.473972
21
10.026021
0
LINE
8
annotation
62
1
10
8.473972
20
10.026021
11
8.471438
21
10.035234
0
LINE
8
annotation
62
1
10
8.471438
20
10.035234
11
8.467401
21
10.043724
0
LINE
8
annotation
62
1
10
8.467401
20
10.043724
11
8.462016
21
10.051337
0
LINE
8
annotation
62
1
10
8.462016
20
10.051337
11
8.455437
21
10.057917
0
LINE
8
annotation
62
1
10
8.455437
20
10.057917
11
8.447816
21
10.063306
0
LINE
8
annotation
62
1
10
8.447816
20
10.063306
11
8.439309
21
10.067349
0
LINE
8
annotation
62
1
10
8.439309
20
10.067349
11
8.430068
21
10.069889
0
LINE
8
annotation
62
1
10
8.430068
20
10.069889
11
8.420248
21
10.070771
0
LINE
8
annotation
62
1
10
8.420248
20
10.070771
11
8.392907
21
10.070771
0
LINE
8
annotation
62
1
10
8.392907
20
10.070771
11
8.420248
21
10.070771
0
LINE
8
annotation
62
1
10
8.420248
20
10.070771
11
8.420248
21
10.070771
0
LINE
8
annotation
62
1
10
8.420248
20
10.070771
11
8.430068
21
10.071652
0
LINE
8
annotation
62
1
10
8.430068
20
10.071652
11
8.439309
21
10.074194
0
LINE
8
annotation
62
1
10
8.439309
20
10.074194
11
8.447816
21
10.078241
0
LINE
8
annotation
62
1
10
8.447816
20
10.078241
11
8.455437
21
10.083638
0
LINE
8
annotation
62
1
10
8.455437
20
10.083638
11
8.462016
21
10.090230
0
LINE
8
annotation
62
1
10
8.462016
20
10.090230
11
8.467401
21
10.097863
0
LINE
8
annotation
62
1
10
8.467401
20
10.097863
11
8.471438
21
10.106380
0
LINE
8
annotation
62
1
10
8.471438
20
10.106380
11
8.473972
21
10.115628
0
LINE
8
annotation
62
1
10
8.473972
20
10.115628
11
8.474851
21
10.125451
0
LINE
8
annotation
62
1
10
8.474851
20
10.125451
11
8.474851
21
10.125451
0
LINE
8
annotation
62
1
10
8.474851
20
10.125451
11
8.473972
21
10.135229
0
LINE
8
annotation
62
1
10
8.473972
20
10.135229
11
8.471438
21
10.144441
0
LINE
8
annotation
62
1
10
8.471438
20
10.144441
11
8.467401
21
10.152932
0
LINE
8
annotation
62
1
10
8.467401
20
10.152932
11
8.462016
21
10.160545
0
LINE
8
annotation
62
1
10
8.462016
20
10.160545
11
8.455437
21
10.167124
0
LINE
8
annotation
62
1
10
8.455437
20
10.167124
11
8.447816
21
10.172513
0
LINE
8
annotation
62
1
10
8.447816
20
10.172513
11
8.439309
21
10.176556
0
LINE
8
annotation
62
1
10
8.439309
20
10.176556
11
8.430068
21
10.179097
0
LINE
8
annotation
62
1
10
8.430068
20
10.179097
11
8.420248
21
10.179978
0
LINE
8
annotation
62
1
10
8.420248
20
10.179978
11
8.365644
21
10.179978
0
LINE
8
annotation
62
1
10
8.638219
20
4.343304
11
8.583244
21
4.343304
0
LINE
8
annotation
62
1
10
8.583244
20
4.343304
11
8.638219
21
4.442314
0
LINE
8
annotation
62
1
10
8.638219
20
4.442314
11
8.583244
21
4.442314
0
LINE
8
annotation
62
1
10
8.729494
20
4.392809
11
8.675357
21
4.392809
0
LINE
8
annotation
62
1
10
8.810594
20
4.343303
11
8.766621
21
4.343303
0
LINE
8
annotation
62
1
10
8.766621
20
4.343303
11
8.807253
21
4.408715
0
LINE
8
annotation
62
1
10
8.807253
20
4.408715
11
8.807253
21
4.408715
0
LINE
8
annotation
62
1
10
8.807253
20
4.408715
11
8.807302
21
4.408776
0
LINE
8
annotation
62
1
10
8.807302
20
4.408776
11
8.807348
21
4.408836
0
LINE
8
annotation
62
1
10
8.807348
20
4.408836
11
8.807393
21
4.408898
0
LINE
8
annotation
62
1
10
8.807393
20
4.408898
11
8.807437
21
4.408961
0
LINE
8
annotation
62
1
10
8.807437
20
4.408961
11
8.807479
21
4.409026
0
LINE
8
annotation
62
1
10
8.807479
20
4.409026
11
8.807521
21
4.409094
0
LINE
8
annotation
62
1
10
8.807521
20
4.409094
11
8.807562
21
4.409165
0
LINE
8
annotation
62
1
10
8.807562
20
4.409165
11
8.807603
21
4.409239
0
LINE
8
annotation
62
1
10
8.807603
20
4.409239
11
8.807645
21
4.409318
0
LINE
8
annotation
62
1
10
8.807645
20
4.409318
11
8.807645
21
4.409318
0
LINE
8
annotation
62
1
10
8.807645
20
4.409318
11
8.809322
21
4.412920
0
LINE
8
annotation
62
1
10
8.809322
20
4.412920
11
8.810302
21
4.416654
0
LINE
8
annotation
62
1
10
8.810302
20
4.416654
11
8.810609
21
4.420435
0
LINE
8
annotation
62
1
10
8.810609
20
4.420435
11
8.810266
21
4.424180
0
LINE
8
annotation
62
1
10
8.810266
20
4.424180
11
8.809297
21
4.427803
0
LINE
8
annotation
62
1
10
8.809297
20
4.427803
11
8.807727
21
4.431220
0
LINE
8
annotation
62
1
10
8.807727
20
4.431220
11
8.805579
21
4.434347
0
LINE
8
annotation
62
1
10
8.805579
20
4.434347
11
8.802878
21
4.437100
0
LINE
8
annotation
62
1
10
8.802878
20
4.437100
11
8.799647
21
4.439394
0
LINE
8
annotation
62
1
10
8.799647
20
4.439394
11
8.799647
21
4.439394
0
LINE
8
annotation
62
1
10
8.799647
20
4.439394
11
8.796035
21
4.441048
0
LINE
8
annotation
62
1
10
8.796035
20
4.441048
11
8.792295
21
4.442013
0
LINE
8
annotation
62
1
10
8.792295
20
4.442013
11
8.788512
21
4.442311
0
LINE
8
annotation
62
1
10
8.788512
20
4.442311
11
8.784768
21
4.441964
0
LINE
8
annotation
62
1
10
8.784768
20
4.441964
11
8.781147
21
4.440992
0
LINE
8
annotation
62
1
10
8.781147
20
4.440992
11
8.777734
21
4.439419
0
LINE
8
annotation
62
1
10
8.777734
20
4.439419
11
8.774611
21
4.437265
0
LINE
8
annotation
62
1
10
8.774611
20
4.437265
11
8.771862
21
4.434553
0
LINE
8
annotation
62
1
10
8.771862
20
4.434553
11
8.769570
21
4.431304
0
LINE
8
annotation
62
1
10
8.769570
20
4.431304
11
8.766683
21
4.425766
0
LINE
8
annotation
62
1
10
8.901876
20
4.392809
11
8.847739
21
4.392809
0
LINE
8
annotation
62
1
10
8.982976
20
4.343303
11
8.939003
21
4.343303
0
LINE
8
annotation
62
1
10
8.939003
20
4.343303
11
8.979635
21
4.408715
0
LINE
8
annotation
62
1
10
8.979635
20
4.408715
11
8.979635
21
4.408715
0
LINE
8
annotation
62
1
10
8.979635
20
4.408715
11
8.979684
21
4.408776
0
LINE
8
annotation
62
1
10
8.979684
20
4.408776
11
8.979730
21
4.408836
0
LINE
8
annotation
62
1
10
8.979730
20
4.408836
11
8.979775
21
4.408898
0
LINE
8
annotation
62
1
10
8.979775
20
4.408898
11
8.979819
21
4.408961
0
LINE
8
annotation
62
1
10
8.979819
20
4.408961
11
8.979861
21
4.409026
0
LINE
8
annotation
62
1
10
8.979861
20
4.409026
11
8.979903
21
4.409094
0
LINE
8
annotation
62
1
10
8.979903
20
4.409094
11
8.979944
21
4.409165
0
LINE
8
annotation
62
1
10
8.979944
20
4.409165
11
8.979985
21
4.409239
0
LINE
8
annotation
62
1
10
8.979985
20
4.409239
11
8.980026
21
4.409318
0
LINE
8
annotation
62
1
10
8.980026
20
4.409318
11
8.980026
21
4.409318
0
LINE
8
annotation
62
1
10
8.980026
20
4.409318
11
8.981704
21
4.412920
0
LINE
8
annotation
62
1
10
8.981704
20
4.412920
11
8.982684
21
4.416654
0
LINE
8
annotation
62
1
10
8.982684
20
4.416654
11
8.982991
21
4.420435
0
LINE
8
annotation
62
1
10
8.982991
20
4.420435
11
8.982648
21
4.424180
0
LINE
8
annotation
62
1
10
8.982648
20
4.424180
11
8.981679
21
4.427803
0
LINE
8
annotation
62
1
10
8.981679
20
4.427803
11
8.980109
21
4.431220
0
LINE
8
annotation
62
1
10
8.980109
20
4.431220
11
8.977961
21
4.434347
0
LINE
8
annotation
62
1
10
8.977961
20
4.434347
11
8.975260
21
4.437100
0
LINE
8
annotation
62
1
10
8.975260
20
4.437100
11
8.972029
21
4.439394
0
LINE
8
annotation
62
1
10
8.972029
20
4.439394
11
8.972029
21
4.439394
0
LINE
8
annotation
62
1
10
8.972029
20
4.439394
11
8.968417
21
4.441048
0
LINE
8
annotation
62
1
10
8.968417
20
4.441048
11
8.964677
21
4.442013
0
LINE
8
annotation
62
1
10
8.964677
20
4.442013
11
8.960894
21
4.442311
0
LINE
8
annotation
62
1
10
8.960894
20
4.442311
11
8.957150
21
4.441964
0
LINE
8
annotation
62
1
10
8.957150
20
4.441964
11
8.953529
21
4.440992
0
LINE
8
annotation
62
1
10
8.953529
20
4.440992
11
8.950116
21
4.439419
0
LINE
8
annotation
62
1
10
8.950116
20
4.439419
11
8.946993
21
4.437265
0
LINE
8
annotation
62
1
10
8.946993
20
4.437265
11
8.944244
21
4.434553
0
LINE
8
annotation
62
1
10
8.944244
20
4.434553
11
8.941952
21
4.431304
0
LINE
8
annotation
62
1
10
8.941952
20
4.431304
11
8.939065
21
4.425766
0
LINE
8
boundary
62
5
10
10.386726
20
0.740650
11
10.425834
21
0.740650
0
LINE
8
boundary
62
5
10
10.425834
20
0.740650
11
10.425190
21
0.892734
0
LINE
8
boundary
62
5
10
10.425190
20
0.892734
11
10.424359
21
1.027031
0
LINE
8
boundary
62
5
10
10.424359
20
1.027031
11
10.423521
21
1.170023
0
LINE
8
boundary
62
5
10
10.423521
20
1.170023
11
10.422058
21
1.284274
0
LINE
8
boundary
62
5
10
10.422058
20
1.284274
11
10.421942
21
1.313410
0
LINE
8
boundary
62
5
10
10.421942
20
1.313410
11
10.421435
21
1.452618
0
LINE
8
boundary
62
5
10
10.421435
20
1.452618
11
10.418366
21
1.888074
0
LINE
8
boundary
62
5
10
10.418366
20
1.888074
11
10.418127
21
2.367733
0
LINE
8
boundary
62
5
10
10.418127
20
2.367733
11
10.418127
21
2.367733
0
LINE
8
boundary
62
5
10
10.418127
20
2.367733
11
10.399377
21
2.386483
0
LINE
8
boundary
62
5
10
10.399377
20
2.386483
11
10.122498
21
2.386483
0
LINE
8
boundary
62
5
10
10.122498
20
2.386483
11
10.102222
21
2.372935
0
LINE
8
boundary
62
5
10
10.102222
20
2.372935
11
10.078304
21
2.368177
0
LINE
8
boundary
62
5
10
10.078304
20
2.368177
11
10.054387
21
2.372935
0
LINE
8
boundary
62
5
10
10.054387
20
2.372935
11
10.034110
21
2.386483
0
LINE
8
boundary
62
5
10
10.034110
20
2.386483
11
10.020562
21
2.406759
0
LINE
8
boundary
62
5
10
10.020562
20
2.406759
11
10.015804
21
2.430677
0
LINE
8
boundary
62
5
10
10.015804
20
2.430677
11
10.020562
21
2.454595
0
LINE
8
boundary
62
5
10
10.020562
20
2.454595
11
10.034110
21
2.474871
0
LINE
8
boundary
62
5
10
10.034110
20
2.474871
11
10.034110
21
2.673095
0
LINE
8
boundary
62
5
10
10.034110
20
2.673095
11
10.020562
21
2.693371
0
LINE
8
boundary
62
5
10
10.020562
20
2.693371
11
10.015804
21
2.717289
0
LINE
8
boundary
62
5
10
10.015804
20
2.717289
11
10.020562
21
2.741206
0
LINE
8
boundary
62
5
10
10.020562
20
2.741206
11
10.034110
21
2.761483
0
LINE
8
boundary
62
5
10
10.034110
20
2.761483
11
10.054386
21
2.775031
0
LINE
8
boundary
62
5
10
10.054386
20
2.775031
11
10.078304
21
2.779789
0
LINE
8
boundary
62
5
10
10.078304
20
2.779789
11
10.102222
21
2.775031
0
LINE
8
boundary
62
5
10
10.102222
20
2.775031
11
10.122498
21
2.761483
0
LINE
8
boundary
62
5
10
10.122498
20
2.761483
11
10.399019
21
2.761483
0
LINE
8
boundary
62
5
10
10.399019
20
2.761483
11
10.417769
21
2.780233
0
LINE
8
boundary
62
5
10
10.417769
20
2.780233
11
10.417769
21
2.780233
0
LINE
8
boundary
62
5
10
10.417769
20
2.780233
11
10.417519
21
3.043951
0
LINE
8
boundary
62
5
10
10.417519
20
3.043951
11
10.418973
21
3.381313
0
LINE
8
boundary
62
5
10
10.418973
20
3.381313
11
10.419180
21
3.624982
0
LINE
8
boundary
62
5
10
10.419180
20
3.624982
11
10.421854
21
4.182017
0
LINE
8
boundary
62
5
10
10.421854
20
4.182017
11
10.421896
21
4.206019
0
LINE
8
boundary
62
5
10
10.421896
20
4.206019
11
10.422310
21
4.298577
0
LINE
8
boundary
62
5
10
10.422310
20
4.298577
11
10.423543
21
4.787065
0
LINE
8
boundary
62
5
10
10.423543
20
4.787065
11
10.423977
21
4.897529
0
LINE
8
boundary
62
5
10
10.423977
20
4.897529
11
10.424949
21
5.368124
0
LINE
8
boundary
62
5
10
10.424949
20
5.368124
11
10.425378
21
5.554157
0
LINE
8
boundary
62
5
10
10.425378
20
5.554157
11
10.425878
21
5.949199
0
LINE
8
boundary
62
5
10
10.425878
20
5.949199
11
10.425913
21
6.034400
0
LINE
8
boundary
62
5
10
10.425913
20
6.034400
11
10.407163
21
6.053150
0
LINE
8
boundary
62
5
10
10.407163
20
6.053150
11
10.023394
21
6.053150
0
LINE
8
boundary
62
5
10
10.023394
20
6.053150
11
10.003118
21
6.039601
0
LINE
8
boundary
62
5
10
10.003118
20
6.039601
11
9.979200
21
6.034844
0
LINE
8
boundary
62
5
10
9.979200
20
6.034844
11
9.955282
21
6.039601
0
LINE
8
boundary
62
5
10
9.955282
20
6.039601
11
9.935006
21
6.053150
0
LINE
8
boundary
62
5
10
9.935006
20
6.053150
11
9.921457
21
6.073426
0
LINE
8
boundary
62
5
10
9.921457
20
6.073426
11
9.916700
21
6.097344
0
LINE
8
boundary
62
5
10
9.916700
20
6.097344
11
9.921457
21
6.121261
0
LINE
8
boundary
62
5
10
9.921457
20
6.121261
11
9.935006
21
6.141538
0
LINE
8
boundary
62
5
10
9.935006
20
6.141538
11
9.935006
21
6.339761
0
LINE
8
boundary
62
5
10
9.935006
20
6.339761
11
9.921457
21
6.360038
0
LINE
8
boundary
62
5
10
9.921457
20
6.360038
11
9.916700
21
6.383955
0
LINE
8
boundary
62
5
10
9.916700
20
6.383955
11
9.921457
21
6.407873
0
LINE
8
boundary
62
5
10
9.921457
20
6.407873
11
9.935006
21
6.428150
0
LINE
8
boundary
62
5
10
9.935006
20
6.428150
11
9.955282
21
6.441698
0
LINE
8
boundary
62
5
10
9.955282
20
6.441698
11
9.979200
21
6.446455
0
LINE
8
boundary
62
5
10
9.979200
20
6.446455
11
10.003118
21
6.441698
0
LINE
8
boundary
62
5
10
10.003118
20
6.441698
11
10.023394
21
6.428150
0
LINE
8
boundary
62
5
10
10.023394
20
6.428150
11
10.407306
21
6.428150
0
LINE
8
boundary
62
5
10
10.407306
20
6.428150
11
10.426056
21
6.446900
0
LINE
8
boundary
62
5
10
10.426056
20
6.446900
11
10.426056
21
6.446900
0
LINE
8
boundary
62
5
10
10.426056
20
6.446900
11
10.426083
21
6.531291
0
LINE
8
boundary
62
5
10
10.426083
20
6.531291
11
10.425756
21
6.738311
0
LINE
8
boundary
62
5
10
10.425756
20
6.738311
11
10.425538
21
7.113961
0
LINE
8
boundary
62
5
10
10.425538
20
7.113961
11
10.424963
21
7.280292
0
LINE
8
boundary
62
5
10
10.424963
20
7.280292
11
10.424447
21
7.696616
0
LINE
8
boundary
62
5
10
10.424447
20
7.696616
11
10.423954
21
7.794956
0
LINE
8
boundary
62
5
10
10.423954
20
7.794956
11
10.423250
21
8.276257
0
LINE
8
boundary
62
5
10
10.423250
20
8.276257
11
10.423197
21
8.284907
0
LINE
8
boundary
62
5
10
10.423197
20
8.284907
11
10.423160
21
8.320328
0
LINE
8
boundary
62
5
10
10.423160
20
8.320328
11
10.420853
21
8.750774
0
LINE
8
boundary
62
5
10
10.420853
20
8.750774
11
10.420782
21
8.853652
0
LINE
8
boundary
62
5
10
10.420782
20
8.853652
11
10.418827
21
9.199621
0
LINE
8
boundary
62
5
10
10.418827
20
9.199621
11
10.418949
21
9.431051
0
LINE
8
boundary
62
5
10
10.418949
20
9.431051
11
10.417909
21
9.633913
0
LINE
8
boundary
62
5
10
10.417909
20
9.633913
11
10.418089
21
9.701066
0
LINE
8
boundary
62
5
10
10.418089
20
9.701066
11
10.399339
21
9.719816
0
LINE
8
boundary
62
5
10
10.399339
20
9.719816
11
10.122943
21
9.719816
0
LINE
8
boundary
62
5
10
10.122943
20
9.719816
11
10.102666
21
9.706268
0
LINE
8
boundary
62
5
10
10.102666
20
9.706268
11
10.078749
21
9.701510
0
LINE
8
boundary
62
5
10
10.078749
20
9.701510
11
10.054831
21
9.706268
0
LINE
8
boundary
62
5
10
10.054831
20
9.706268
11
10.034555
21
9.719816
0
LINE
8
boundary
62
5
10
10.034555
20
9.719816
11
10.021006
21
9.740093
0
LINE
8
boundary
62
5
10
10.021006
20
9.740093
11
10.016249
21
9.764010
0
LINE
8
boundary
62
5
10
10.016249
20
9.764010
11
10.021006
21
9.787928
0
LINE
8
boundary
62
5
10
10.021006
20
9.787928
11
10.034555
21
9.808205
0
LINE
8
boundary
62
5
10
10.034555
20
9.808205
11
10.034555
21
10.006428
0
LINE
8
boundary
62
5
10
10.034555
20
10.006428
11
10.021006
21
10.026704
0
LINE
8
boundary
62
5
10
10.021006
20
10.026704
11
10.016249
21
10.050622
0
LINE
8
boundary
62
5
10
10.016249
20
10.050622
11
10.021006
21
10.074540
0
LINE
8
boundary
62
5
10
10.021006
20
10.074540
11
10.034555
21
10.094816
0
LINE
8
boundary
62
5
10
10.034555
20
10.094816
11
10.054831
21
10.108365
0
LINE
8
boundary
62
5
10
10.054831
20
10.108365
11
10.078749
21
10.113122
0
LINE
8
boundary
62
5
10
10.078749
20
10.113122
11
10.102667
21
10.108365
0
LINE
8
boundary
62
5
10
10.102667
20
10.108365
11
10.122943
21
10.094816
0
LINE
8
boundary
62
5
10
10.122943
20
10.094816
11
10.400340
21
10.094816
0
LINE
8
boundary
62
5
10
10.400340
20
10.094816
11
10.419090
21
10.113566
0
LINE
8
boundary
62
5
10
10.419090
20
10.113566
11
10.419403
21
10.166051
0
LINE
8
boundary
62
5
10
10.419403
20
10.166051
11
10.418641
21
10.465349
0
LINE
8
boundary
62
5
10
10.418641
20
10.465349
11
10.419228
21
10.585858
0
LINE
8
boundary
62
5
10
10.419228
20
10.585858
11
10.419087
21
10.865952
0
LINE
8
boundary
62
5
10
10.419087
20
10.865952
11
10.421562
21
11.163257
0
LINE
8
boundary
62
5
10
10.421562
20
11.163257
11
10.424186
21
11.451342
0
LINE
8
boundary
62
5
10
10.424186
20
11.451342
11
10.424188
21
11.451954
0
LINE
8
boundary
62
5
10
10.424188
20
11.451954
11
10.424208
21
11.453700
0
LINE
8
boundary
62
5
10
10.424208
20
11.453700
11
10.425154
21
11.638678
0
LINE
8
boundary
62
5
10
10.425154
20
11.638678
11
10.425541
21
11.740650
0
LINE
8
boundary
62
5
10
10.425541
20
11.740650
11
10.394982
21
11.740650
0
LINE
8
boundary
62
5
10
10.394982
20
11.740650
11
10.328721
21
11.740650
0
LINE
8
boundary
62
5
10
10.328721
20
11.740650
11
10.273598
21
11.740650
0
LINE
8
boundary
62
5
10
10.273598
20
11.740650
11
10.148443
21
11.740650
0
LINE
8
boundary
62
5
10
10.148443
20
11.740650
11
10.085865
21
11.740650
0
LINE
8
boundary
62
5
10
10.085865
20
11.740650
11
10.030742
21
11.740650
0
LINE
8
boundary
62
5
10
10.030742
20
11.740650
11
9.975083
21
11.740650
0
LINE
8
boundary
62
5
10
9.975083
20
11.740650
11
9.944345
21
11.740650
0
LINE
8
boundary
62
5
10
9.944345
20
11.740650
11
9.924273
21
11.623466
0
LINE
8
boundary
62
5
10
9.924273
20
11.623466
11
9.920264
21
11.600240
0
LINE
8
boundary
62
5
10
9.920264
20
11.600240
11
9.917583
21
11.584300
0
LINE
8
boundary
62
5
10
9.917583
20
11.584300
11
9.904252
21
11.505352
0
LINE
8
boundary
62
5
10
9.904252
20
11.505352
11
9.897819
21
11.467429
0
LINE
8
boundary
62
5
10
9.897819
20
11.467429
11
9.896524
21
11.459830
0
LINE
8
boundary
62
5
10
9.896524
20
11.459830
11
9.891276
21
11.427764
0
LINE
8
boundary
62
5
10
9.891276
20
11.427764
11
9.850498
21
11.179011
0
LINE
8
boundary
62
5
10
9.850498
20
11.179011
11
9.840864
21
11.116136
0
LINE
8
boundary
62
5
10
9.840864
20
11.116136
11
9.807161
21
10.898190
0
LINE
8
boundary
62
5
10
9.807161
20
10.898190
11
9.805077
21
10.883762
0
LINE
8
boundary
62
5
10
9.805077
20
10.883762
11
9.794796
21
10.813259
0
LINE
8
boundary
62
5
10
9.794796
20
10.813259
11
9.770799
21
10.650372
0
LINE
8
boundary
62
5
10
9.770799
20
10.650372
11
9.765885
21
10.617371
0
LINE
8
boundary
62
5
10
9.765885
20
10.617371
11
9.738115
21
10.416745
0
LINE
8
boundary
62
5
10
9.738115
20
10.416745
11
9.726893
21
10.336550
0
LINE
8
boundary
62
5
10
9.726893
20
10.336550
11
9.707054
21
10.183318
0
LINE
8
boundary
62
5
10
9.707054
20
10.183318
11
9.690350
21
10.055730
0
LINE
8
boundary
62
5
10
9.690350
20
10.055730
11
9.677594
21
9.949865
0
LINE
8
boundary
62
5
10
9.677594
20
9.949865
11
9.656273
21
9.774911
0
LINE
8
boundary
62
5
10
9.656273
20
9.774911
11
9.649721
21
9.716141
0
LINE
8
boundary
62
5
10
9.649721
20
9.716141
11
9.624680
21
9.494090
0
LINE
8
boundary
62
5
10
9.624680
20
9.494090
11
9.623427
21
9.481852
0
LINE
8
boundary
62
5
10
9.623427
20
9.481852
11
9.616701
21
9.416947
0
LINE
8
boundary
62
5
10
9.616701
20
9.416947
11
9.598728
21
9.245594
0
LINE
8
boundary
62
5
10
9.598728
20
9.245594
11
9.595295
21
9.213271
0
LINE
8
boundary
62
5
10
9.595295
20
9.213271
11
9.575662
21
9.007933
0
LINE
8
boundary
62
5
10
9.575662
20
9.007933
11
9.568353
21
8.932450
0
LINE
8
boundary
62
5
10
9.568353
20
8.932450
11
9.554242
21
8.768930
0
LINE
8
boundary
62
5
10
9.554242
20
8.768930
11
9.543990
21
8.651631
0
LINE
8
boundary
62
5
10
9.543990
20
8.651631
11
9.534493
21
8.528187
0
LINE
8
boundary
62
5
10
9.534493
20
8.528187
11
9.522229
21
8.370811
0
LINE
8
boundary
62
5
10
9.522229
20
8.370811
11
9.516452
21
8.285268
0
LINE
8
boundary
62
5
10
9.516452
20
8.285268
11
9.503095
21
8.089991
0
LINE
8
boundary
62
5
10
9.503095
20
8.089991
11
9.500157
21
8.039383
0
LINE
8
boundary
62
5
10
9.500157
20
8.039383
11
9.486507
21
7.807255
0
LINE
8
boundary
62
5
10
9.486507
20
7.807255
11
9.485623
21
7.789030
0
LINE
8
boundary
62
5
10
9.485623
20
7.789030
11
9.477678
21
7.627210
0
LINE
8
boundary
62
5
10
9.477678
20
7.627210
11
9.472999
21
7.533235
0
LINE
8
boundary
62
5
10
9.472999
20
7.533235
11
9.472458
21
7.522494
0
LINE
8
boundary
62
5
10
9.472458
20
7.522494
11
9.462506
21
7.272967
0
LINE
8
boundary
62
5
10
9.462506
20
7.272967
11
9.461082
21
7.237732
0
LINE
8
boundary
62
5
10
9.461082
20
7.237732
11
9.454202
21
7.008002
0
LINE
8
boundary
62
5
10
9.454202
20
7.008002
11
9.452533
21
6.952970
0
LINE
8
boundary
62
5
10
9.452533
20
6.952970
11
9.448231
21
6.737731
0
LINE
8
boundary
62
5
10
9.448231
20
6.737731
11
9.446824
21
6.668209
0
LINE
8
boundary
62
5
10
9.446824
20
6.668209
11
9.444754
21
6.461381
0
LINE
8
boundary
62
5
10
9.444754
20
6.461381
11
9.443963
21
6.383211
0
LINE
8
boundary
62
5
10
9.443963
20
6.383211
11
9.443961
21
6.178893
0
LINE
8
boundary
62
5
10
9.443961
20
6.178893
11
9.443960
21
6.098825
0
LINE
8
boundary
62
5
10
9.443960
20
6.098825
11
9.446037
21
5.890124
0
LINE
8
boundary
62
5
10
9.446037
20
5.890124
11
9.446792
21
5.815175
0
LINE
8
boundary
62
5
10
9.446792
20
5.815175
11
9.451192
21
5.594114
0
LINE
8
boundary
62
5
10
9.451192
20
5.594114
11
9.452453
21
5.531525
0
LINE
8
boundary
62
5
10
9.452453
20
5.531525
11
9.459653
21
5.290266
0
LINE
8
boundary
62
5
10
9.459653
20
5.290266
11
9.460932
21
5.247875
0
LINE
8
boundary
62
5
10
9.460932
20
5.247875
11
9.471649
21
4.978304
0
LINE
8
boundary
62
5
10
9.471649
20
4.978304
11
9.472215
21
4.964225
0
LINE
8
boundary
62
5
10
9.472215
20
4.964225
11
9.477677
21
4.854201
0
LINE
8
boundary
62
5
10
9.477677
20
4.854201
11
9.486155
21
4.680575
0
LINE
8
boundary
62
5
10
9.486155
20
4.680575
11
9.487413
21
4.658872
0
LINE
8
boundary
62
5
10
9.487413
20
4.658872
11
9.502739
21
4.396925
0
LINE
8
boundary
62
5
10
9.502739
20
4.396925
11
9.507097
21
4.332348
0
LINE
8
boundary
62
5
10
9.507097
20
4.332348
11
9.522026
21
4.113275
0
LINE
8
boundary
62
5
10
9.522026
20
4.113275
11
9.530863
21
3.998542
0
LINE
8
boundary
62
5
10
9.530863
20
3.998542
11
9.543993
21
3.829625
0
LINE
8
boundary
62
5
10
9.543993
20
3.829625
11
9.558854
21
3.657831
0
LINE
8
boundary
62
5
10
9.558854
20
3.657831
11
9.568616
21
3.545975
0
LINE
8
boundary
62
5
10
9.568616
20
3.545975
11
9.591187
21
3.310714
0
LINE
8
boundary
62
5
10
9.591187
20
3.310714
11
9.595869
21
3.262325
0
LINE
8
boundary
62
5
10
9.595869
20
3.262325
11
9.616702
21
3.064535
0
LINE
8
boundary
62
5
10
9.616702
20
3.064535
11
9.625603
21
2.978675
0
LINE
8
boundary
62
5
10
9.625603
20
2.978675
11
9.627780
21
2.959242
0
LINE
8
boundary
62
5
10
9.627780
20
2.959242
11
9.657604
21
2.695025
0
LINE
8
boundary
62
5
10
9.657604
20
2.695025
11
9.668268
21
2.606971
0
LINE
8
boundary
62
5
10
9.668268
20
2.606971
11
9.692068
21
2.411935
0
LINE
8
boundary
62
5
10
9.692068
20
2.411935
11
9.712510
21
2.254812
0
LINE
8
boundary
62
5
10
9.712510
20
2.254812
11
9.728487
21
2.132915
0
LINE
8
boundary
62
5
10
9.728487
20
2.132915
11
9.760368
21
1.903580
0
LINE
8
boundary
62
5
10
9.760368
20
1.903580
11
9.767324
21
1.853896
0
LINE
8
boundary
62
5
10
9.767324
20
1.853896
11
9.794794
21
1.668136
0
LINE
8
boundary
62
5
10
9.794794
20
1.668136
11
9.808398
21
1.574876
0
LINE
8
boundary
62
5
10
9.808398
20
1.574876
11
9.811849
21
1.552417
0
LINE
8
boundary
62
5
10
9.811849
20
1.552417
11
9.851518
21
1.295856
0
LINE
8
boundary
62
5
10
9.851518
20
1.295856
11
9.892509
21
1.046073
0
LINE
8
boundary
62
5
10
9.892509
20
1.046073
11
9.897223
21
1.017295
0
LINE
8
boundary
62
5
10
9.897223
20
1.017295
11
9.904254
21
0.975907
0
LINE
8
boundary
62
5
10
9.904254
20
0.975907
11
9.920621
21
0.878972
0
LINE
8
boundary
62
5
10
9.920621
20
0.878972
11
9.924645
21
0.855660
0
LINE
8
boundary
62
5
10
9.924645
20
0.855660
11
9.944345
21
0.740650
0
LINE
8
boundary
62
5
10
9.944345
20
0.740650
11
9.972102
21
0.740650
0
LINE
8
boundary
62
5
10
9.972102
20
0.740650
11
10.026447
21
0.740650
0
LINE
8
boundary
62
5
10
10.026447
20
0.740650
11
10.086394
21
0.740650
0
LINE
8
boundary
62
5
10
10.086394
20
0.740650
11
10.146827
21
0.740650
0
LINE
8
boundary
62
5
10
10.146827
20
0.740650
11
10.266720
21
0.740650
0
LINE
8
boundary
62
5
10
10.266720
20
0.740650
11
10.327153
21
0.740650
0
LINE
8
boundary
62
5
10
10.327153
20
0.740650
11
10.386726
21
0.740650
0
LINE
8
annotation
62
1
10
9.752705
20
2.600445
11
9.752705
21
2.847521
0
LINE
8
annotation
62
1
10
9.752705
20
2.847521
11
9.697777
21
2.792578
0
LINE
8
annotation
62
1
10
9.620666
20
6.087768
11
9.484871
21
6.087768
0
LINE
8
annotation
62
1
10
9.484871
20
6.087768
11
9.610350
21
6.289773
0
LINE
8
annotation
62
1
10
9.610350
20
6.289773
11
9.610350
21
6.289773
0
LINE
8
annotation
62
1
10
9.610350
20
6.289773
11
9.610500
21
6.289958
0
LINE
8
annotation
62
1
10
9.610500
20
6.289958
11
9.610644
21
6.290145
0
LINE
8
annotation
62
1
10
9.610644
20
6.290145
11
9.610782
21
6.290336
0
LINE
8
annotation
62
1
10
9.610782
20
6.290336
11
9.610917
21
6.290531
0
LINE
8
annotation
62
1
10
9.610917
20
6.290531
11
9.611048
21
6.290732
0
LINE
8
annotation
62
1
10
9.611048
20
6.290732
11
9.611177
21
6.290942
0
LINE
8
annotation
62
1
10
9.611177
20
6.290942
11
9.611304
21
6.291160
0
LINE
8
annotation
62
1
10
9.611304
20
6.291160
11
9.611431
21
6.291390
0
LINE
8
annotation
62
1
10
9.611431
20
6.291390
11
9.611558
21
6.291633
0
LINE
8
annotation
62
1
10
9.611558
20
6.291633
11
9.611558
21
6.291633
0
LINE
8
annotation
62
1
10
9.611558
20
6.291633
11
9.616739
21
6.302757
0
LINE
8
annotation
62
1
10
9.616739
20
6.302757
11
9.619766
21
6.314288
0
LINE
8
annotation
62
1
10
9.619766
20
6.314288
11
9.620712
21
6.325965
0
LINE
8
annotation
62
1
10
9.620712
20
6.325965
11
9.619653
21
6.337529
0
LINE
8
annotation
62
1
10
9.619653
20
6.337529
11
9.616661
21
6.348717
0
LINE
8
annotation
62
1
10
9.616661
20
6.348717
11
9.611812
21
6.359271
0
LINE
8
annotation
62
1
10
9.611812
20
6.359271
11
9.605180
21
6.368929
0
LINE
8
annotation
62
1
10
9.605180
20
6.368929
11
9.596838
21
6.377430
0
LINE
8
annotation
62
1
10
9.596838
20
6.377430
11
9.586861
21
6.384515
0
LINE
8
annotation
62
1
10
9.586861
20
6.384515
11
9.586861
21
6.384515
0
LINE
8
annotation
62
1
10
9.586861
20
6.384515
11
9.575706
21
6.389622
0
LINE
8
annotation
62
1
10
9.575706
20
6.389622
11
9.564157
21
6.392602
0
LINE
8
annotation
62
1
10
9.564157
20
6.392602
11
9.552473
21
6.393522
0
LINE
8
annotation
62
1
10
9.552473
20
6.393522
11
9.540911
21
6.392448
0
LINE
8
annotation
62
1
10
9.540911
20
6.392448
11
9.529731
21
6.389449
0
LINE
8
annotation
62
1
10
9.529731
20
6.389449
11
9.519189
21
6.384590
0
LINE
8
annotation
62
1
10
9.519189
20
6.384590
11
9.509544
21
6.377939
0
LINE
8
annotation
62
1
10
9.509544
20
6.377939
11
9.501055
21
6.369564
0
LINE
8
annotation
62
1
10
9.501055
20
6.369564
11
9.493979
21
6.359530
0
LINE
8
annotation
62
1
10
9.493979
20
6.359530
11
9.485063
21
6.342426
0
LINE
8
annotation
62
1
10
9.717828
20
9.799753
11
9.765602
21
9.799753
0
LINE
8
annotation
62
1
10
9.765602
20
9.799753
11
9.765602
21
9.799753
0
LINE
8
annotation
62
1
10
9.765602
20
9.799753
11
9.774195
21
9.800524
0
LINE
8
annotation
62
1
10
9.774195
20
9.800524
11
9.782280
21
9.802745
0
LINE
8
annotation
62
1
10
9.782280
20
9.802745
11
9.789723
21
9.806281
0
LINE
8
annotation
62
1
10
9.789723
20
9.806281
11
9.796390
21
9.810995
0
LINE
8
annotation
62
1
10
9.796390
20
9.810995
11
9.802147
21
9.816750
0
LINE
8
annotation
62
1
10
9.802147
20
9.816750
11
9.806858
21
9.823411
0
LINE
8
annotation
62
1
10
9.806858
20
9.823411
11
9.810390
21
9.830840
0
LINE
8
annotation
62
1
10
9.810390
20
9.830840
11
9.812608
21
9.838902
0
LINE
8
annotation
62
1
10
9.812608
20
9.838902
11
9.813377
21
9.847460
0
LINE
8
annotation
62
1
10
9.813377
20
9.847460
11
9.813377
21
9.871381
0
LINE
8
annotation
62
1
10
9.813377
20
9.871381
11
9.813377
21
9.871381
0
LINE
8
annotation
62
1
10
9.813377
20
9.871381
11
9.812608
21
9.879935
0
LINE
8
annotation
62
1
10
9.812608
20
9.879935
11
9.810390
21
9.887995
0
LINE
8
annotation
62
1
10
9.810390
20
9.887995
11
9.806858
21
9.895424
0
LINE
8
annotation
62
1
10
9.806858
20
9.895424
11
9.802147
21
9.902085
0
LINE
8
annotation
62
1
10
9.802147
20
9.902085
11
9.796390
21
9.907842
0
LINE
8
annotation
62
1
10
9.796390
20
9.907842
11
9.789723
21
9.912557
0
LINE
8
annotation
62
1
10
9.789723
20
9.912557
11
9.782280
21
9.916094
0
LINE
8
annotation
62
1
10
9.782280
20
9.916094
11
9.774195
21
9.918317
0
LINE
8
annotation
62
1
10
9.774195
20
9.918317
11
9.765602
21
9.919088
0
LINE
8
annotation
62
1
10
9.765602
20
9.919088
11
9.741681
21
9.919088
0
LINE
8
annotation
62
1
10
9.741681
20
9.919088
11
9.765602
21
9.919088
0
LINE
8
annotation
62
1
10
9.765602
20
9.919088
11
9.765602
21
9.919088
0
LINE
8
annotation
62
1
10
9.765602
20
9.919088
11
9.774195
21
9.919859
0
LINE
8
annotation
62
1
10
9.774195
20
9.919859
11
9.782280
21
9.922083
0
LINE
8
annotation
62
1
10
9.782280
20
9.922083
11
9.789723
21
9.925624
0
LINE
8
annotation
62
1
10
9.789723
20
9.925624
11
9.796390
21
9.930346
0
LINE
8
annotation
62
1
10
9.796390
20
9.930346
11
9.802147
21
9.936114
0
LINE
8
annotation
62
1
10
9.802147
20
9.936114
11
9.806858
21
9.942791
0
LINE
8
annotation
62
1
10
9.806858
20
9.942791
11
9.810390
21
9.950244
0
LINE
8
annotation
62
1
10
9.810390
20
9.950244
11
9.812608
21
9.958335
0
LINE
8
annotation
62
1
10
9.812608
20
9.958335
11
9.813377
21
9.966930
0
LINE
8
annotation
62
1
10
9.813377
20
9.966930
11
9.813377
21
9.966930
0
LINE
8
annotation
62
1
10
9.813377
20
9.966930
11
9.812608
21
9.975484
0
LINE
8
annotation
62
1
10
9.812608
20
9.975484
11
9.810390
21
9.983544
0
LINE
8
annotation
62
1
10
9.810390
20
9.983544
11
9.806858
21
9.990973
0
LINE
8
annotation
62
1
10
9.806858
20
9.990973
11
9.802147
21
9.997634
0
LINE
8
annotation
62
1
10
9.802147
20
9.997634
11
9.796390
21
10.003391
0
LINE
8
annotation
62
1
10
9.796390
20
10.003391
11
9.789723
21
10.008106
0
LINE
8
annotation
62
1
10
9.789723
20
10.008106
11
9.782280
21
10.011643
0
LINE
8
annotation
62
1
10
9.782280
20
10.011643
11
9.774195
21
10.013866
0
LINE
8
annotation
62
1
10
9.774195
20
10.013866
11
9.765602
21
10.014637
0
LINE
8
annotation
62
1
10
9.765602
20
10.014637
11
9.717828
21
10.014637
0
LINE
8
annotation
62
1
10
9.844076
20
8.038986
11
9.789101
21
8.038986
0
LINE
8
annotation
62
1
10
9.789101
20
8.038986
11
9.844076
21
8.137996
0
LINE
8
annotation
62
1
10
9.844076
20
8.137996
11
9.789101
21
8.137996
0
LINE
8
annotation
62
1
10
9.935351
20
8.088491
11
9.881214
21
8.088491
0
LINE
8
annotation
62
1
10
10.016450
20
8.038985
11
9.972478
21
8.038985
0
LINE
8
annotation
62
1
10
9.972478
20
8.038985
11
10.013110
21
8.104397
0
LINE
8
annotation
62
1
10
10.013110
20
8.104397
11
10.013110
21
8.104397
0
LINE
8
annotation
62
1
10
10.013110
20
8.104397
11
10.013158
21
8.104458
0
LINE
8
annotation
62
1
10
10.013158
20
8.104458
11
10.013205
21
8.104518
0
LINE
8
annotation
62
1
10
10.013205
20
8.104518
11
10.013250
21
8.104580
0
LINE
8
annotation
62
1
10
10.013250
20
8.104580
11
10.013293
21
8.104643
0
LINE
8
annotation
62
1
10
10.013293
20
8.104643
11
10.013336
21
8.104708
0
LINE
8
annotation
62
1
10
10.013336
20
8.104708
11
10.013378
21
8.104776
0
LINE
8
annotation
62
1
10
10.013378
20
8.104776
11
10.013419
21
8.104847
0
LINE
8
annotation
62
1
10
10.013419
20
8.104847
11
10.013460
21
8.104921
0
LINE
8
annotation
62
1
10
10.013460
20
8.104921
11
10.013501
21
8.105000
0
LINE
8
annotation
62
1
10
10.013501
20
8.105000
11
10.013501
21
8.105000
0
LINE
8
annotation
62
1
10
10.013501
20
8.105000
11
10.015179
21
8.108602
0
LINE
8
annotation
62
1
10
10.015179
20
8.108602
11
10.016159
21
8.112336
0
LINE
8
annotation
62
1
10
10.016159
20
8.112336
11
10.016465
21
8.116117
0
LINE
8
annotation
62
1
10
10.016465
20
8.116117
11
10.016122
21
8.119862
0
LINE
8
annotation
62
1
10
10.016122
20
8.119862
11
10.015154
21
8.123485
0
LINE
8
annotation
62
1
10
10.015154
20
8.123485
11
10.013583
21
8.126902
0
LINE
8
annotation
62
1
10
10.013583
20
8.126902
11
10.011436
21
8.130029
0
LINE
8
annotation
62
1
10
10.011436
20
8.130029
11
10.008734
21
8.132782
0
LINE
8
annotation
62
1
10
10.008734
20
8.132782
11
10.005504
21
8.135076
0
LINE
8
annotation
62
1
10
10.005504
20
8.135076
11
10.005504
21
8.135076
0
LINE
8
annotation
62
1
10
10.005504
20
8.135076
11
10.001892
21
8.136730
0
LINE
8
annotation
62
1
10
10.001892
20
8.136730
11
9.998152
21
8.137695
0
LINE
8
annotation
62
1
10
9.998152
20
8.137695
11
9.994368
21
8.137993
0
LINE
8
annotation
62
1
10
9.994368
20
8.137993
11
9.990624
21
8.137646
0
LINE
8
annotation
62
1
10
9.990624
20
8.137646
11
9.987004
21
8.136674
0
LINE
8
annotation
62
1
10
9.987004
20
8.136674
11
9.983590
21
8.135101
0
LINE
8
annotation
62
1
10
9.983590
20
8.135101
11
9.980467
21
8.132947
0
LINE
8
annotation
62
1
10
9.980467
20
8.132947
11
9.977718
21
8.130235
0
LINE
8
annotation
62
1
10
9.977718
20
8.130235
11
9.975427
21
8.126986
0
LINE
8
annotation
62
1
10
9.975427
20
8.126986
11
9.972540
21
8.121448
0
LINE
8
annotation
62
1
10
10.107733
20
8.088491
11
10.053596
21
8.088491
0
LINE
8
annotation
62
1
10
10.166866
20
8.038986
11
10.166866
21
8.137996
0
LINE
8
annotation
62
1
10
10.166866
20
8.137996
11
10.144855
21
8.115978
0
LINE
8
frame
62
5
10
0.000000
20
0.000000
11
12.000000
21
0.000000
0
LINE
8
frame
62
5
10
12.000000
20
0.000000
11
12.000000
21
12.000000
0
LINE
8
frame
62
5
10
12.000000
20
12.000000
11
0.000000
21
12.000000
0
LINE
8
frame
62
5
10
0.000000
20
12.000000
11
0.000000
21
0.000000
0
ENDSEC
0
EOF
