 0
SECTION
 2
ENTITIES
  0
POLYLINE
 8
Layer0
 66
     1
70
    8
 10
0.0
 20
 0.0
 30
0.0
  0
VERTEX
  8
MY3DLAYER
10
-7542.248546968778
20
-1076.3898913272556
30
-326.4033234782211
 70
     32
  0
VERTEX
  8
MY3DLAYER
10
-7541.679003320516
20
-1075.9528651151115
30
-326.4033234782211
 70
     32
  0
VERTEX
  8
MY3DLAYER
10
-7541.241977108371
20
-1075.3833214668487
30
-326.4033234782211
 70
     32
  0
VERTEX
  8
MY3DLAYER
10
-7540.9672509464845
20
-1074.7200738408808
30
-326.4033234782211
 70
     32
  0
VERTEX
  8
MY3DLAYER
10
-7540.873546968779
20
-1074.0083214668489
30
-326.4033234782211
 70
     32
  0
VERTEX
  8
MY3DLAYER
10
-7540.9672509464845
20
-1073.2965690928172
30
-326.4033234782211
 70
     32
  0
VERTEX
  8
MY3DLAYER
10
-7541.241977108371
20
-1072.6333214668493
30
-326.4033234782211
 70
     32
  0
VERTEX
  8
MY3DLAYER
10
-7541.679003320516
20
-1072.0637778185865
30
-326.4033234782211
 70
     32
  0
VERTEX
  8
MY3DLAYER
10
-7542.248546968779
20
-1071.6267516064424
30
-326.4033234782211
 70
     32
  0
VERTEX
  8
MY3DLAYER
10
-7542.911794594746
20
-1071.3520254445546
30
-326.4033234782211
 70
     32
  0
VERTEX
  8
MY3DLAYER
10
-7543.623546968778
20
-1071.2583214668496
30
-326.4033234782211
 70
     32
  0
VERTEX
  8
MY3DLAYER
10
-7544.33529934281
20
-1071.3520254445546
30
-326.4033234782211
 70
     32
  0
VERTEX
  8
MY3DLAYER
10
-7544.998546968779
20
-1071.6267516064424
30
-326.4033234782211
 70
     32
  0
VERTEX
  8
MY3DLAYER
10
-7545.568090617041
20
-1072.0637778185865
30
-326.4033234782211
 70
     32
  0
VERTEX
  8
MY3DLAYER
10
-7546.005116829186
20
-1072.6333214668493
30
-326.4033234782211
 70
     32
  0
VERTEX
  8
MY3DLAYER
10
-7546.279842991073
20
-1073.2965690928172
30
-326.4033234782211
 70
     32
  0
VERTEX
  8
MY3DLAYER
10
-7546.373546968778
20
-1074.0083214668489
30
-326.4033234782211
 70
     32
  0
VERTEX
  8
MY3DLAYER
10
-7546.279842991073
20
-1074.7200738408808
30
-326.4033234782211
 70
     32
  0
VERTEX
  8
MY3DLAYER
10
-7546.005116829186
20
-1075.3833214668487
30
-326.4033234782211
 70
     32
  0
VERTEX
  8
MY3DLAYER
10
-7545.568090617041
20
-1075.9528651151115
30
-326.4033234782211
 70
     32
  0
VERTEX
  8
MY3DLAYER
10
-7544.998546968777
20
-1076.3898913272556
30
-326.4033234782211
 70
     32
  0
VERTEX
  8
MY3DLAYER
10
-7544.33529934281
20
-1076.6646174891434
30
-326.4033234782211
 70
     32
  0
VERTEX
  8
MY3DLAYER
10
-7543.623546968778
20
-1076.7583214668484
30
-326.4033234782211
 70
     32
  0
VERTEX
  8
MY3DLAYER
10
-7542.911794594746
20
-1076.6646174891434
30
-326.4033234782211
 70
     32
  0
VERTEX
  8
MY3DLAYER
10
-7542.248546968778
20
-1076.3898913272556
30
-326.4033234782211
 70
     32
  0
SEQEND
  0
POLYLINE
 8
Layer0
 66
     1
70
    8
 10
0.0
 20
 0.0
 30
0.0
  0
VERTEX
  8
MY3DLAYER
10
-7542.911794594746
20
-1116.664617489143
30
-326.4033234782211
 70
     32
  0
VERTEX
  8
MY3DLAYER
10
-7542.248546968778
20
-1116.3898913272553
30
-326.4033234782211
 70
     32
  0
VERTEX
  8
MY3DLAYER
10
-7541.679003320516
20
-1115.9528651151113
30
-326.4033234782211
 70
     32
  0
VERTEX
  8
MY3DLAYER
10
-7541.241977108371
20
-1115.3833214668484
30
-326.4033234782211
 70
     32
  0
VERTEX
  8
MY3DLAYER
10
-7540.9672509464845
20
-1114.7200738408806
30
-326.4033234782211
 70
     32
  0
VERTEX
  8
MY3DLAYER
10
-7540.873546968779
20
-1114.0083214668487
30
-326.4033234782211
 70
     32
  0
VERTEX
  8
MY3DLAYER
10
-7540.9672509464845
20
-1113.296569092817
30
-326.4033234782211
 70
     32
  0
VERTEX
  8
MY3DLAYER
10
-7541.241977108371
20
-1112.633321466849
30
-326.4033234782211
 70
     32
  0
VERTEX
  8
MY3DLAYER
10
-7541.679003320516
20
-1112.0637778185862
30
-326.4033234782211
 70
     32
  0
VERTEX
  8
MY3DLAYER
10
-7542.248546968779
20
-1111.626751606442
30
-326.4033234782211
 70
     32
  0
VERTEX
  8
MY3DLAYER
10
-7542.911794594746
20
-1111.3520254445543
30
-326.4033234782211
 70
     32
  0
VERTEX
  8
MY3DLAYER
10
-7543.623546968778
20
-1111.2583214668493
30
-326.4033234782211
 70
     32
  0
VERTEX
  8
MY3DLAYER
10
-7544.33529934281
20
-1111.3520254445543
30
-326.4033234782211
 70
     32
  0
VERTEX
  8
MY3DLAYER
10
-7544.998546968779
20
-1111.626751606442
30
-326.4033234782211
 70
     32
  0
VERTEX
  8
MY3DLAYER
10
-7545.568090617041
20
-1112.0637778185862
30
-326.4033234782211
 70
     32
  0
VERTEX
  8
MY3DLAYER
10
-7546.005116829186
20
-1112.633321466849
30
-326.4033234782211
 70
     32
  0
VERTEX
  8
MY3DLAYER
10
-7546.279842991073
20
-1113.296569092817
30
-326.4033234782211
 70
     32
  0
VERTEX
  8
MY3DLAYER
10
-7546.373546968778
20
-1114.0083214668487
30
-326.4033234782211
 70
     32
  0
VERTEX
  8
MY3DLAYER
10
-7546.279842991073
20
-1114.7200738408806
30
-326.4033234782211
 70
     32
  0
VERTEX
  8
MY3DLAYER
10
-7546.005116829186
20
-1115.3833214668484
30
-326.4033234782211
 70
     32
  0
VERTEX
  8
MY3DLAYER
10
-7545.568090617041
20
-1115.9528651151113
30
-326.4033234782211
 70
     32
  0
VERTEX
  8
MY3DLAYER
10
-7544.998546968777
20
-1116.3898913272553
30
-326.4033234782211
 70
     32
  0
VERTEX
  8
MY3DLAYER
10
-7544.33529934281
20
-1116.664617489143
30
-326.4033234782211
 70
     32
  0
VERTEX
  8
MY3DLAYER
10
-7543.623546968778
20
-1116.7583214668482
30
-326.4033234782211
 70
     32
  0
VERTEX
  8
MY3DLAYER
10
-7542.911794594746
20
-1116.664617489143
30
-326.4033234782211
 70
     32
  0
SEQEND
  0
POLYLINE
 8
Layer0
 66
     1
70
    8
 10
0.0
 20
 0.0
 30
0.0
  0
VERTEX
  8
MY3DLAYER
10
-7553.623546968779
20
-1062.5083214668489
30
-326.4033234782211
 70
     32
  0
VERTEX
  8
MY3DLAYER
10
-7553.623546968779
20
-1125.5083214668489
30
-326.4033234782211
 70
     32
  0
VERTEX
  8
MY3DLAYER
10
-7553.572435708213
20
-1125.8965500345025
30
-326.4033234782211
 70
     32
  0
VERTEX
  8
MY3DLAYER
10
-7553.422585074456
20
-1126.2583214668487
30
-326.4033234782211
 70
     32
  0
VERTEX
  8
MY3DLAYER
10
-7553.184207140558
20
-1126.5689816386284
30
-326.4033234782211
 70
     32
  0
VERTEX
  8
MY3DLAYER
10
-7552.873546968779
20
-1126.8073595725252
30
-326.4033234782211
 70
     32
  0
VERTEX
  8
MY3DLAYER
10
-7552.511775536434
20
-1126.957210206282
30
-326.4033234782211
 70
     32
  0
VERTEX
  8
MY3DLAYER
10
-7552.123546968779
20
-1127.0083214668484
30
-326.4033234782211
 70
     32
  0
VERTEX
  8
MY3DLAYER
10
-7295.123546968778
20
-1127.0083214668484
30
-326.4033234782211
 70
     32
  0
VERTEX
  8
MY3DLAYER
10
-7294.7353184011245
20
-1126.957210206282
30
-326.4033234782211
 70
     32
  0
VERTEX
  8
MY3DLAYER
10
-7294.373546968779
20
-1126.8073595725252
30
-326.4033234782211
 70
     32
  0
VERTEX
  8
MY3DLAYER
10
-7294.062886796999
20
-1126.5689816386284
30
-326.4033234782211
 70
     32
  0
VERTEX
  8
MY3DLAYER
10
-7293.824508863102
20
-1126.2583214668487
30
-326.4033234782211
 70
     32
  0
VERTEX
  8
MY3DLAYER
10
-7293.674658229345
20
-1125.8965500345025
30
-326.4033234782211
 70
     32
  0
VERTEX
  8
MY3DLAYER
10
-7293.623546968779
20
-1125.5083214668489
30
-326.4033234782211
 70
     32
  0
VERTEX
  8
MY3DLAYER
10
-7293.623546968779
20
-1062.5083214668489
30
-326.4033234782211
 70
     32
  0
VERTEX
  8
MY3DLAYER
10
-7293.674658229345
20
-1062.1200928991952
30
-326.4033234782211
 70
     32
  0
VERTEX
  8
MY3DLAYER
10
-7293.824508863102
20
-1061.758321466849
30
-326.4033234782211
 70
     32
  0
VERTEX
  8
MY3DLAYER
10
-7294.062886796999
20
-1061.4476612950693
30
-326.4033234782211
 70
     32
  0
VERTEX
  8
MY3DLAYER
10
-7294.373546968779
20
-1061.2092833611725
30
-326.4033234782211
 70
     32
  0
VERTEX
  8
MY3DLAYER
10
-7294.7353184011245
20
-1061.0594327274155
30
-326.4033234782211
 70
     32
  0
VERTEX
  8
MY3DLAYER
10
-7295.123546968778
20
-1061.008321466849
30
-326.4033234782211
 70
     32
  0
VERTEX
  8
MY3DLAYER
10
-7552.123546968779
20
-1061.0083214668489
30
-326.4033234782211
 70
     32
  0
VERTEX
  8
MY3DLAYER
10
-7552.511775536434
20
-1061.0594327274152
30
-326.4033234782211
 70
     32
  0
VERTEX
  8
MY3DLAYER
10
-7552.873546968779
20
-1061.209283361172
30
-326.4033234782211
 70
     32
  0
VERTEX
  8
MY3DLAYER
10
-7553.18420714056
20
-1061.447661295069
30
-326.4033234782211
 70
     32
  0
VERTEX
  8
MY3DLAYER
10
-7553.422585074456
20
-1061.7583214668489
30
-326.4033234782211
 70
     32
  0
VERTEX
  8
MY3DLAYER
10
-7553.572435708213
20
-1062.1200928991952
30
-326.4033234782211
 70
     32
  0
VERTEX
  8
MY3DLAYER
10
-7553.623546968779
20
-1062.5083214668489
30
-326.4033234782211
 70
     32
  0
SEQEND
  0
POLYLINE
 8
Layer0
 66
     1
70
    8
 10
0.0
 20
 0.0
 30
0.0
  0
VERTEX
  8
MY3DLAYER
10
-7541.679003320516
20
-1075.9528651151115
30
-326.4033234782211
 70
     32
  0
VERTEX
  8
MY3DLAYER
10
-7542.248546968778
20
-1076.3898913272556
30
-326.4033234782211
 70
     32
  0
VERTEX
  8
MY3DLAYER
10
-7542.911794594746
20
-1076.6646174891434
30
-326.4033234782211
 70
     32
  0
VERTEX
  8
MY3DLAYER
10
-7543.623546968778
20
-1076.7583214668484
30
-326.4033234782211
 70
     32
  0
VERTEX
  8
MY3DLAYER
10
-7544.33529934281
20
-1076.6646174891434
30
-326.4033234782211
 70
     32
  0
VERTEX
  8
MY3DLAYER
10
-7544.998546968777
20
-1076.3898913272556
30
-326.4033234782211
 70
     32
  0
VERTEX
  8
MY3DLAYER
10
-7545.568090617041
20
-1075.9528651151115
30
-326.4033234782211
 70
     32
  0
VERTEX
  8
MY3DLAYER
10
-7546.005116829186
20
-1075.3833214668487
30
-326.4033234782211
 70
     32
  0
VERTEX
  8
MY3DLAYER
10
-7546.279842991073
20
-1074.7200738408808
30
-326.4033234782211
 70
     32
  0
VERTEX
  8
MY3DLAYER
10
-7546.373546968778
20
-1074.0083214668489
30
-326.4033234782211
 70
     32
  0
VERTEX
  8
MY3DLAYER
10
-7546.279842991073
20
-1073.2965690928172
30
-326.4033234782211
 70
     32
  0
VERTEX
  8
MY3DLAYER
10
-7546.005116829186
20
-1072.6333214668493
30
-326.4033234782211
 70
     32
  0
VERTEX
  8
MY3DLAYER
10
-7545.568090617041
20
-1072.0637778185865
30
-326.4033234782211
 70
     32
  0
VERTEX
  8
MY3DLAYER
10
-7544.998546968779
20
-1071.6267516064424
30
-326.4033234782211
 70
     32
  0
VERTEX
  8
MY3DLAYER
10
-7544.33529934281
20
-1071.3520254445546
30
-326.4033234782211
 70
     32
  0
VERTEX
  8
MY3DLAYER
10
-7543.623546968778
20
-1071.2583214668496
30
-326.4033234782211
 70
     32
  0
VERTEX
  8
MY3DLAYER
10
-7542.911794594746
20
-1071.3520254445546
30
-326.4033234782211
 70
     32
  0
VERTEX
  8
MY3DLAYER
10
-7542.248546968779
20
-1071.6267516064424
30
-326.4033234782211
 70
     32
  0
VERTEX
  8
MY3DLAYER
10
-7541.679003320516
20
-1072.0637778185865
30
-326.4033234782211
 70
     32
  0
VERTEX
  8
MY3DLAYER
10
-7541.241977108371
20
-1072.6333214668493
30
-326.4033234782211
 70
     32
  0
VERTEX
  8
MY3DLAYER
10
-7540.9672509464845
20
-1073.2965690928172
30
-326.4033234782211
 70
     32
  0
VERTEX
  8
MY3DLAYER
10
-7540.873546968779
20
-1074.0083214668489
30
-326.4033234782211
 70
     32
  0
VERTEX
  8
MY3DLAYER
10
-7540.9672509464845
20
-1074.7200738408808
30
-326.4033234782211
 70
     32
  0
VERTEX
  8
MY3DLAYER
10
-7541.241977108371
20
-1075.3833214668487
30
-326.4033234782211
 70
     32
  0
VERTEX
  8
MY3DLAYER
10
-7541.679003320516
20
-1075.9528651151115
30
-326.4033234782211
 70
     32
  0
SEQEND
  0
POLYLINE
 8
Layer0
 66
     1
70
    8
 10
0.0
 20
 0.0
 30
0.0
  0
VERTEX
  8
MY3DLAYER
10
-7542.248546968778
20
-1116.3898913272553
30
-326.4033234782211
 70
     32
  0
VERTEX
  8
MY3DLAYER
10
-7542.911794594746
20
-1116.664617489143
30
-326.4033234782211
 70
     32
  0
VERTEX
  8
MY3DLAYER
10
-7543.623546968778
20
-1116.7583214668482
30
-326.4033234782211
 70
     32
  0
VERTEX
  8
MY3DLAYER
10
-7544.33529934281
20
-1116.664617489143
30
-326.4033234782211
 70
     32
  0
VERTEX
  8
MY3DLAYER
10
-7544.998546968777
20
-1116.3898913272553
30
-326.4033234782211
 70
     32
  0
VERTEX
  8
MY3DLAYER
10
-7545.568090617041
20
-1115.9528651151113
30
-326.4033234782211
 70
     32
  0
VERTEX
  8
MY3DLAYER
10
-7546.005116829186
20
-1115.3833214668484
30
-326.4033234782211
 70
     32
  0
VERTEX
  8
MY3DLAYER
10
-7546.279842991073
20
-1114.7200738408806
30
-326.4033234782211
 70
     32
  0
VERTEX
  8
MY3DLAYER
10
-7546.373546968778
20
-1114.0083214668487
30
-326.4033234782211
 70
     32
  0
VERTEX
  8
MY3DLAYER
10
-7546.279842991073
20
-1113.296569092817
30
-326.4033234782211
 70
     32
  0
VERTEX
  8
MY3DLAYER
10
-7546.005116829186
20
-1112.633321466849
30
-326.4033234782211
 70
     32
  0
VERTEX
  8
MY3DLAYER
10
-7545.568090617041
20
-1112.0637778185862
30
-326.4033234782211
 70
     32
  0
VERTEX
  8
MY3DLAYER
10
-7544.998546968779
20
-1111.626751606442
30
-326.4033234782211
 70
     32
  0
VERTEX
  8
MY3DLAYER
10
-7544.33529934281
20
-1111.3520254445543
30
-326.4033234782211
 70
     32
  0
VERTEX
  8
MY3DLAYER
10
-7543.623546968778
20
-1111.2583214668493
30
-326.4033234782211
 70
     32
  0
VERTEX
  8
MY3DLAYER
10
-7542.911794594746
20
-1111.3520254445543
30
-326.4033234782211
 70
     32
  0
VERTEX
  8
MY3DLAYER
10
-7542.248546968779
20
-1111.626751606442
30
-326.4033234782211
 70
     32
  0
VERTEX
  8
MY3DLAYER
10
-7541.679003320516
20
-1112.0637778185862
30
-326.4033234782211
 70
     32
  0
VERTEX
  8
MY3DLAYER
10
-7541.241977108371
20
-1112.633321466849
30
-326.4033234782211
 70
     32
  0
VERTEX
  8
MY3DLAYER
10
-7540.9672509464845
20
-1113.296569092817
30
-326.4033234782211
 70
     32
  0
VERTEX
  8
MY3DLAYER
10
-7540.873546968779
20
-1114.0083214668487
30
-326.4033234782211
 70
     32
  0
VERTEX
  8
MY3DLAYER
10
-7540.9672509464845
20
-1114.7200738408806
30
-326.4033234782211
 70
     32
  0
VERTEX
  8
MY3DLAYER
10
-7541.241977108371
20
-1115.3833214668484
30
-326.4033234782211
 70
     32
  0
VERTEX
  8
MY3DLAYER
10
-7541.679003320516
20
-1115.9528651151113
30
-326.4033234782211
 70
     32
  0
VERTEX
  8
MY3DLAYER
10
-7542.248546968778
20
-1116.3898913272553
30
-326.4033234782211
 70
     32
  0
SEQEND
  0
POLYLINE
 8
Layer0
 66
     1
70
    8
 10
0.0
 20
 0.0
 30
0.0
  0
VERTEX
  8
MY3DLAYER
10
-7300.967250946485
20
-1073.2965690928172
30
-326.4033234782211
 70
     32
  0
VERTEX
  8
MY3DLAYER
10
-7300.87354696878
20
-1074.0083214668489
30
-326.4033234782211
 70
     32
  0
VERTEX
  8
MY3DLAYER
10
-7300.967250946485
20
-1074.7200738408808
30
-326.4033234782211
 70
     32
  0
VERTEX
  8
MY3DLAYER
10
-7301.241977108372
20
-1075.3833214668487
30
-326.4033234782211
 70
     32
  0
VERTEX
  8
MY3DLAYER
10
-7301.679003320517
20
-1075.9528651151115
30
-326.4033234782211
 70
     32
  0
VERTEX
  8
MY3DLAYER
10
-7302.248546968779
20
-1076.3898913272556
30
-326.4033234782211
 70
     32
  0
VERTEX
  8
MY3DLAYER
10
-7302.911794594748
20
-1076.6646174891434
30
-326.4033234782211
 70
     32
  0
VERTEX
  8
MY3DLAYER
10
-7303.623546968779
20
-1076.7583214668484
30
-326.4033234782211
 70
     32
  0
VERTEX
  8
MY3DLAYER
10
-7304.335299342811
20
-1076.6646174891434
30
-326.4033234782211
 70
     32
  0
VERTEX
  8
MY3DLAYER
10
-7304.998546968778
20
-1076.3898913272556
30
-326.4033234782211
 70
     32
  0
VERTEX
  8
MY3DLAYER
10
-7305.568090617042
20
-1075.9528651151115
30
-326.4033234782211
 70
     32
  0
VERTEX
  8
MY3DLAYER
10
-7306.005116829187
20
-1075.3833214668487
30
-326.4033234782211
 70
     32
  0
VERTEX
  8
MY3DLAYER
10
-7306.279842991074
20
-1074.7200738408808
30
-326.4033234782211
 70
     32
  0
VERTEX
  8
MY3DLAYER
10
-7306.373546968779
20
-1074.0083214668489
30
-326.4033234782211
 70
     32
  0
VERTEX
  8
MY3DLAYER
10
-7306.279842991074
20
-1073.2965690928172
30
-326.4033234782211
 70
     32
  0
VERTEX
  8
MY3DLAYER
10
-7306.005116829187
20
-1072.6333214668493
30
-326.4033234782211
 70
     32
  0
VERTEX
  8
MY3DLAYER
10
-7305.568090617042
20
-1072.0637778185865
30
-326.4033234782211
 70
     32
  0
VERTEX
  8
MY3DLAYER
10
-7304.99854696878
20
-1071.6267516064424
30
-326.4033234782211
 70
     32
  0
VERTEX
  8
MY3DLAYER
10
-7304.335299342811
20
-1071.3520254445546
30
-326.4033234782211
 70
     32
  0
VERTEX
  8
MY3DLAYER
10
-7303.623546968779
20
-1071.2583214668496
30
-326.4033234782211
 70
     32
  0
VERTEX
  8
MY3DLAYER
10
-7302.911794594748
20
-1071.3520254445546
30
-326.4033234782211
 70
     32
  0
VERTEX
  8
MY3DLAYER
10
-7302.248546968781
20
-1071.6267516064424
30
-326.4033234782211
 70
     32
  0
VERTEX
  8
MY3DLAYER
10
-7301.679003320517
20
-1072.0637778185865
30
-326.4033234782211
 70
     32
  0
VERTEX
  8
MY3DLAYER
10
-7301.241977108372
20
-1072.6333214668493
30
-326.4033234782211
 70
     32
  0
VERTEX
  8
MY3DLAYER
10
-7300.967250946485
20
-1073.2965690928172
30
-326.4033234782211
 70
     32
  0
SEQEND
  0
POLYLINE
 8
Layer0
 66
     1
70
    8
 10
0.0
 20
 0.0
 30
0.0
  0
VERTEX
  8
MY3DLAYER
10
-7300.967250946485
20
-1113.296569092817
30
-326.4033234782211
 70
     32
  0
VERTEX
  8
MY3DLAYER
10
-7300.87354696878
20
-1114.0083214668487
30
-326.4033234782211
 70
     32
  0
VERTEX
  8
MY3DLAYER
10
-7300.967250946485
20
-1114.7200738408806
30
-326.4033234782211
 70
     32
  0
VERTEX
  8
MY3DLAYER
10
-7301.241977108372
20
-1115.3833214668484
30
-326.4033234782211
 70
     32
  0
VERTEX
  8
MY3DLAYER
10
-7301.679003320517
20
-1115.9528651151113
30
-326.4033234782211
 70
     32
  0
VERTEX
  8
MY3DLAYER
10
-7302.248546968779
20
-1116.3898913272553
30
-326.4033234782211
 70
     32
  0
VERTEX
  8
MY3DLAYER
10
-7302.911794594748
20
-1116.664617489143
30
-326.4033234782211
 70
     32
  0
VERTEX
  8
MY3DLAYER
10
-7303.623546968779
20
-1116.7583214668482
30
-326.4033234782211
 70
     32
  0
VERTEX
  8
MY3DLAYER
10
-7304.335299342811
20
-1116.664617489143
30
-326.4033234782211
 70
     32
  0
VERTEX
  8
MY3DLAYER
10
-7304.998546968778
20
-1116.3898913272553
30
-326.4033234782211
 70
     32
  0
VERTEX
  8
MY3DLAYER
10
-7305.568090617042
20
-1115.9528651151113
30
-326.4033234782211
 70
     32
  0
VERTEX
  8
MY3DLAYER
10
-7306.005116829187
20
-1115.3833214668484
30
-326.4033234782211
 70
     32
  0
VERTEX
  8
MY3DLAYER
10
-7306.279842991074
20
-1114.7200738408806
30
-326.4033234782211
 70
     32
  0
VERTEX
  8
MY3DLAYER
10
-7306.373546968779
20
-1114.0083214668487
30
-326.4033234782211
 70
     32
  0
VERTEX
  8
MY3DLAYER
10
-7306.279842991074
20
-1113.296569092817
30
-326.4033234782211
 70
     32
  0
VERTEX
  8
MY3DLAYER
10
-7306.005116829187
20
-1112.633321466849
30
-326.4033234782211
 70
     32
  0
VERTEX
  8
MY3DLAYER
10
-7305.568090617042
20
-1112.0637778185862
30
-326.4033234782211
 70
     32
  0
VERTEX
  8
MY3DLAYER
10
-7304.99854696878
20
-1111.626751606442
30
-326.4033234782211
 70
     32
  0
VERTEX
  8
MY3DLAYER
10
-7304.335299342811
20
-1111.3520254445543
30
-326.4033234782211
 70
     32
  0
VERTEX
  8
MY3DLAYER
10
-7303.623546968779
20
-1111.2583214668493
30
-326.4033234782211
 70
     32
  0
VERTEX
  8
MY3DLAYER
10
-7302.911794594748
20
-1111.3520254445543
30
-326.4033234782211
 70
     32
  0
VERTEX
  8
MY3DLAYER
10
-7302.248546968781
20
-1111.626751606442
30
-326.4033234782211
 70
     32
  0
VERTEX
  8
MY3DLAYER
10
-7301.679003320517
20
-1112.0637778185862
30
-326.4033234782211
 70
     32
  0
VERTEX
  8
MY3DLAYER
10
-7301.241977108372
20
-1112.633321466849
30
-326.4033234782211
 70
     32
  0
VERTEX
  8
MY3DLAYER
10
-7300.967250946485
20
-1113.296569092817
30
-326.4033234782211
 70
     32
  0
SEQEND
  0
POLYLINE
 8
Layer0
 66
     1
70
    8
 10
0.0
 20
 0.0
 30
0.0
  0
VERTEX
  8
MY3DLAYER
10
-7493.623546968787
20
-1070.4083214668494
30
-326.4033234782211
 70
     32
  0
VERTEX
  8
MY3DLAYER
10
-7493.623546968787
20
-1117.6083214668477
30
-326.4033234782211
 70
     32
  0
VERTEX
  8
MY3DLAYER
10
-7520.8235469687825
20
-1117.6083214668477
30
-326.4033234782211
 70
     32
  0
VERTEX
  8
MY3DLAYER
10
-7520.823546968786
20
-1070.4083214668499
30
-326.4033234782211
 70
     32
  0
VERTEX
  8
MY3DLAYER
10
-7493.623546968787
20
-1070.4083214668494
30
-326.4033234782211
 70
     32
  0
SEQEND
  0
POLYLINE
 8
Layer0
 66
     1
70
    8
 10
0.0
 20
 0.0
 30
0.0
  0
VERTEX
  8
MY3DLAYER
10
-7525.045212559767
20
-1093.4449750348244
30
-326.4033234782211
 70
     32
  0
VERTEX
  8
MY3DLAYER
10
-7524.973632719213
20
-1094.0279650306616
30
-326.4033234782211
 70
     32
  0
VERTEX
  8
MY3DLAYER
10
-7525.055380816623
20
-1094.609616350094
30
-326.4033234782211
 70
     32
  0
VERTEX
  8
MY3DLAYER
10
-7525.284885854231
20
-1095.1502904169154
30
-326.4033234782211
 70
     32
  0
VERTEX
  8
MY3DLAYER
10
-7525.646507443007
20
-1095.6131411869828
30
-326.4033234782211
 70
     32
  0
VERTEX
  8
MY3DLAYER
10
-7526.115601669286
20
-1095.966626145218
30
-326.4033234782211
 70
     32
  0
VERTEX
  8
MY3DLAYER
10
-7526.660200536764
20
-1096.1866558758725
30
-326.4033234782211
 70
     32
  0
VERTEX
  8
MY3DLAYER
10
-7527.243190532601
20
-1096.2582357164176
30
-326.4033234782211
 70
     32
  0
VERTEX
  8
MY3DLAYER
10
-7527.824841852034
20
-1096.1764876190134
30
-326.4033234782211
 70
     32
  0
VERTEX
  8
MY3DLAYER
10
-7528.365515918855
20
-1095.9469825814015
30
-326.4033234782211
 70
     32
  0
VERTEX
  8
MY3DLAYER
10
-7528.82836668893
20
-1095.5853609926255
30
-326.4033234782211
 70
     32
  0
VERTEX
  8
MY3DLAYER
10
-7529.18185164716
20
-1095.1162667663516
30
-326.4033234782211
 70
     32
  0
VERTEX
  8
MY3DLAYER
10
-7529.40188137781
20
-1094.571667898871
30
-326.4033234782211
 70
     32
  0
VERTEX
  8
MY3DLAYER
10
-7529.47346121835
20
-1093.988677903032
30
-326.4033234782211
 70
     32
  0
VERTEX
  8
MY3DLAYER
10
-7529.3917131209455
20
-1093.4070265836008
30
-326.4033234782211
 70
     32
  0
VERTEX
  8
MY3DLAYER
10
-7529.162208083341
20
-1092.8663525167774
30
-326.4033234782211
 70
     32
  0
VERTEX
  8
MY3DLAYER
10
-7528.800586494556
20
-1092.4035017467056
30
-326.4033234782211
 70
     32
  0
VERTEX
  8
MY3DLAYER
10
-7528.331492268283
20
-1092.0500167884798
30
-326.4033234782211
 70
     32
  0
VERTEX
  8
MY3DLAYER
10
-7527.786893400812
20
-1091.8299870578273
30
-326.4033234782211
 70
     32
  0
VERTEX
  8
MY3DLAYER
10
-7527.203903404979
20
-1091.758407217285
30
-326.4033234782211
 70
     32
  0
VERTEX
  8
MY3DLAYER
10
-7526.622252085543
20
-1091.8401553146875
30
-326.4033234782211
 70
     32
  0
VERTEX
  8
MY3DLAYER
10
-7526.081578018718
20
-1092.069660352295
30
-326.4033234782211
 70
     32
  0
VERTEX
  8
MY3DLAYER
10
-7525.618727248653
20
-1092.4312819410693
30
-326.4033234782211
 70
     32
  0
VERTEX
  8
MY3DLAYER
10
-7525.265242290414
20
-1092.900376167348
30
-326.4033234782211
 70
     32
  0
VERTEX
  8
MY3DLAYER
10
-7525.045212559767
20
-1093.4449750348244
30
-326.4033234782211
 70
     32
  0
SEQEND
  0
POLYLINE
 8
Layer0
 66
     1
70
    8
 10
0.0
 20
 0.0
 30
0.0
  0
VERTEX
  8
MY3DLAYER
10
-7485.06262964031
20
-1094.63516777937
30
-326.4033234782211
 70
     32
  0
VERTEX
  8
MY3DLAYER
10
-7485.2985008767755
20
-1095.1730950687258
30
-326.4033234782211
 70
     32
  0
VERTEX
  8
MY3DLAYER
10
-7485.665560823109
20
-1095.631644961992
30
-326.4033234782211
 70
     32
  0
VERTEX
  8
MY3DLAYER
10
-7486.138794950584
20
-1095.9795680417367
30
-326.4033234782211
 70
     32
  0
VERTEX
  8
MY3DLAYER
10
-7486.685953135457
20
-1096.1931539250402
30
-326.4033234782211
 70
     32
  0
VERTEX
  8
MY3DLAYER
10
-7487.2697474516635
20
-1096.257847086925
30
-326.4033234782211
 70
     32
  0
VERTEX
  8
MY3DLAYER
10
-7487.850393281307
20
-1096.1692387953171
30
-326.4033234782211
 70
     32
  0
VERTEX
  8
MY3DLAYER
10
-7488.38832057067
20
-1095.9333675588643
30
-326.4033234782211
 70
     32
  0
VERTEX
  8
MY3DLAYER
10
-7488.846870463941
20
-1095.566307612524
30
-326.4033234782211
 70
     32
  0
VERTEX
  8
MY3DLAYER
10
-7489.194793543672
20
-1095.0930734850476
30
-326.4033234782211
 70
     32
  0
VERTEX
  8
MY3DLAYER
10
-7489.408379426983
20
-1094.5459153001716
30
-326.4033234782211
 70
     32
  0
VERTEX
  8
MY3DLAYER
10
-7489.47307258886
20
-1093.9621209839704
30
-326.4033234782211
 70
     32
  0
VERTEX
  8
MY3DLAYER
10
-7489.384464297258
20
-1093.3814751543293
30
-326.4033234782211
 70
     32
  0
VERTEX
  8
MY3DLAYER
10
-7489.148593060801
20
-1092.8435478649717
30
-326.4033234782211
 70
     32
  0
VERTEX
  8
MY3DLAYER
10
-7488.78153311446
20
-1092.3849979717002
30
-326.4033234782211
 70
     32
  0
VERTEX
  8
MY3DLAYER
10
-7488.308298986981
20
-1092.0370748919593
30
-326.4033234782211
 70
     32
  0
VERTEX
  8
MY3DLAYER
10
-7487.761140802111
20
-1091.8234890086555
30
-326.4033234782211
 70
     32
  0
VERTEX
  8
MY3DLAYER
10
-7487.17734648591
20
-1091.7587958467743
30
-326.4033234782211
 70
     32
  0
VERTEX
  8
MY3DLAYER
10
-7486.596700656265
20
-1091.8474041383818
30
-326.4033234782211
 70
     32
  0
VERTEX
  8
MY3DLAYER
10
-7486.058773366909
20
-1092.0832753748361
30
-326.4033234782211
 70
     32
  0
VERTEX
  8
MY3DLAYER
10
-7485.600223473642
20
-1092.4503353211787
30
-326.4033234782211
 70
     32
  0
VERTEX
  8
MY3DLAYER
10
-7485.252300393903
20
-1092.923569448653
30
-326.4033234782211
 70
     32
  0
VERTEX
  8
MY3DLAYER
10
-7485.038714510598
20
-1093.4707276335293
30
-326.4033234782211
 70
     32
  0
VERTEX
  8
MY3DLAYER
10
-7484.9740213487175
20
-1094.054521949729
30
-326.4033234782211
 70
     32
  0
VERTEX
  8
MY3DLAYER
10
-7485.06262964031
20
-1094.63516777937
30
-326.4033234782211
 70
     32
  0
SEQEND
  0
POLYLINE
 8
Layer0
 66
     1
70
    8
 10
0.0
 20
 0.0
 30
0.0
  0
VERTEX
  8
MY3DLAYER
10
-7454.023546968779
20
-1086.508321466849
30
-326.4033234782211
 70
     32
  0
VERTEX
  8
MY3DLAYER
10
-7454.023546968779
20
-1101.5083214668489
30
-326.4033234782211
 70
     32
  0
VERTEX
  8
MY3DLAYER
10
-7466.023546968779
20
-1101.5083214668489
30
-326.4033234782211
 70
     32
  0
VERTEX
  8
MY3DLAYER
10
-7466.023546968779
20
-1086.508321466849
30
-326.4033234782211
 70
     32
  0
VERTEX
  8
MY3DLAYER
10
-7454.023546968779
20
-1086.508321466849
30
-326.4033234782211
 70
     32
  0
SEQEND
  0
POLYLINE
 8
Layer0
 66
     1
70
    8
 10
0.0
 20
 0.0
 30
0.0
  0
VERTEX
  8
MY3DLAYER
10
-7458.778557064683
20
-1076.8830738382921
30
-326.4033234782211
 70
     32
  0
VERTEX
  8
MY3DLAYER
10
-7458.415863170371
20
-1077.2586354560283
30
-326.4033234782211
 70
     32
  0
VERTEX
  8
MY3DLAYER
10
-7458.162730270098
20
-1077.715272209353
30
-326.4033234782211
 70
     32
  0
VERTEX
  8
MY3DLAYER
10
-7458.036408952696
20
-1078.221865058155
30
-326.4033234782211
 70
     32
  0
VERTEX
  8
MY3DLAYER
10
-7458.045507807188
20
-1078.7438905369722
30
-326.4033234782211
 70
     32
  0
VERTEX
  8
MY3DLAYER
10
-7458.189406761678
20
-1079.2457734721115
30
-326.4033234782211
 70
     32
  0
VERTEX
  8
MY3DLAYER
10
-7458.458299340222
20
-1079.6933113709442
30
-326.4033234782211
 70
     32
  0
VERTEX
  8
MY3DLAYER
10
-7458.833860957959
20
-1080.0560052652559
30
-326.4033234782211
 70
     32
  0
VERTEX
  8
MY3DLAYER
10
-7459.290497711282
20
-1080.309138165529
30
-326.4033234782211
 70
     32
  0
VERTEX
  8
MY3DLAYER
10
-7459.797090560084
20
-1080.4354594829322
30
-326.4033234782211
 70
     32
  0
VERTEX
  8
MY3DLAYER
10
-7460.319116038902
20
-1080.42636062844
30
-326.4033234782211
 70
     32
  0
VERTEX
  8
MY3DLAYER
10
-7460.820998974042
20
-1080.28246167395
30
-326.4033234782211
 70
     32
  0
VERTEX
  8
MY3DLAYER
10
-7461.268536872874
20
-1080.0135690954057
30
-326.4033234782211
 70
     32
  0
VERTEX
  8
MY3DLAYER
10
-7461.631230767185
20
-1079.6380074776696
30
-326.4033234782211
 70
     32
  0
VERTEX
  8
MY3DLAYER
10
-7461.884363667459
20
-1079.1813707243448
30
-326.4033234782211
 70
     32
  0
VERTEX
  8
MY3DLAYER
10
-7462.010684984862
20
-1078.674777875543
30
-326.4033234782211
 70
     32
  0
VERTEX
  8
MY3DLAYER
10
-7462.001586130369
20
-1078.1527523967256
30
-326.4033234782211
 70
     32
  0
VERTEX
  8
MY3DLAYER
10
-7461.85768717588
20
-1077.6508694615864
30
-326.4033234782211
 70
     32
  0
VERTEX
  8
MY3DLAYER
10
-7461.588794597335
20
-1077.2033315627536
30
-326.4033234782211
 70
     32
  0
VERTEX
  8
MY3DLAYER
10
-7461.213232979599
20
-1076.840637668442
30
-326.4033234782211
 70
     32
  0
VERTEX
  8
MY3DLAYER
10
-7460.756596226275
20
-1076.5875047681689
30
-326.4033234782211
 70
     32
  0
VERTEX
  8
MY3DLAYER
10
-7460.250003377472
20
-1076.4611834507657
30
-326.4033234782211
 70
     32
  0
VERTEX
  8
MY3DLAYER
10
-7459.727977898655
20
-1076.4702823052578
30
-326.4033234782211
 70
     32
  0
VERTEX
  8
MY3DLAYER
10
-7459.226094963516
20
-1076.614181259748
30
-326.4033234782211
 70
     32
  0
VERTEX
  8
MY3DLAYER
10
-7458.778557064683
20
-1076.8830738382921
30
-326.4033234782211
 70
     32
  0
SEQEND
  0
POLYLINE
 8
Layer0
 66
     1
70
    8
 10
0.0
 20
 0.0
 30
0.0
  0
VERTEX
  8
MY3DLAYER
10
-7460.5001549151675
20
-1107.6259402309843
30
-326.4033234782211
 70
     32
  0
VERTEX
  8
MY3DLAYER
10
-7459.981189636519
20
-1107.5687700530552
30
-326.4033234782211
 70
     32
  0
VERTEX
  8
MY3DLAYER
10
-7459.465110940064
20
-1107.6478659995614
30
-326.4033234782211
 70
     32
  0
VERTEX
  8
MY3DLAYER
10
-7458.9870887361085
20
-1107.8578378124603
30
-326.4033234782211
 70
     32
  0
VERTEX
  8
MY3DLAYER
10
-7458.579699447881
20
-1108.1843762596982
30
-326.4033234782211
 70
     32
  0
VERTEX
  8
MY3DLAYER
10
-7458.2707059821305
20
-1108.6052282857256
30
-326.4033234782211
 70
     32
  0
VERTEX
  8
MY3DLAYER
10
-7458.081165732914
20
-1109.0917135204597
30
-326.4033234782211
 70
     32
  0
VERTEX
  8
MY3DLAYER
10
-7458.023995554986
20
-1109.6106787991087
30
-326.4033234782211
 70
     32
  0
VERTEX
  8
MY3DLAYER
10
-7458.103091501491
20
-1110.1267574955625
30
-326.4033234782211
 70
     32
  0
VERTEX
  8
MY3DLAYER
10
-7458.313063314391
20
-1110.6047796995192
30
-326.4033234782211
 70
     32
  0
VERTEX
  8
MY3DLAYER
10
-7458.639601761628
20
-1111.0121689877471
30
-326.4033234782211
 70
     32
  0
VERTEX
  8
MY3DLAYER
10
-7459.060453787655
20
-1111.3211624534972
30
-326.4033234782211
 70
     32
  0
VERTEX
  8
MY3DLAYER
10
-7459.54693902239
20
-1111.5107027027134
30
-326.4033234782211
 70
     32
  0
VERTEX
  8
MY3DLAYER
10
-7460.065904301037
20
-1111.5678728806427
30
-326.4033234782211
 70
     32
  0
VERTEX
  8
MY3DLAYER
10
-7460.581982997493
20
-1111.4887769341365
30
-326.4033234782211
 70
     32
  0
VERTEX
  8
MY3DLAYER
10
-7461.060005201448
20
-1111.2788051212376
30
-326.4033234782211
 70
     32
  0
VERTEX
  8
MY3DLAYER
10
-7461.467394489677
20
-1110.9522666739997
30
-326.4033234782211
 70
     32
  0
VERTEX
  8
MY3DLAYER
10
-7461.776387955427
20
-1110.5314146479723
30
-326.4033234782211
 70
     32
  0
VERTEX
  8
MY3DLAYER
10
-7461.965928204643
20
-1110.0449294132382
30
-326.4033234782211
 70
     32
  0
VERTEX
  8
MY3DLAYER
10
-7462.023098382571
20
-1109.5259641345892
30
-326.4033234782211
 70
     32
  0
VERTEX
  8
MY3DLAYER
10
-7461.944002436066
20
-1109.0098854381351
30
-326.4033234782211
 70
     32
  0
VERTEX
  8
MY3DLAYER
10
-7461.734030623166
20
-1108.5318632341787
30
-326.4033234782211
 70
     32
  0
VERTEX
  8
MY3DLAYER
10
-7461.407492175929
20
-1108.1244739459505
30
-326.4033234782211
 70
     32
  0
VERTEX
  8
MY3DLAYER
10
-7460.986640149902
20
-1107.8154804802007
30
-326.4033234782211
 70
     32
  0
VERTEX
  8
MY3DLAYER
10
-7460.5001549151675
20
-1107.6259402309843
30
-326.4033234782211
 70
     32
  0
SEQEND
  0
POLYLINE
 8
Layer0
 66
     1
70
    8
 10
0.0
 20
 0.0
 30
0.0
  0
VERTEX
  8
MY3DLAYER
10
-7302.911794594748
20
-1116.664617489143
30
-326.4033234782211
 70
     32
  0
VERTEX
  8
MY3DLAYER
10
-7302.248546968779
20
-1116.3898913272553
30
-326.4033234782211
 70
     32
  0
VERTEX
  8
MY3DLAYER
10
-7301.679003320517
20
-1115.9528651151113
30
-326.4033234782211
 70
     32
  0
VERTEX
  8
MY3DLAYER
10
-7301.241977108372
20
-1115.3833214668484
30
-326.4033234782211
 70
     32
  0
VERTEX
  8
MY3DLAYER
10
-7300.967250946485
20
-1114.7200738408806
30
-326.4033234782211
 70
     32
  0
VERTEX
  8
MY3DLAYER
10
-7300.87354696878
20
-1114.0083214668487
30
-326.4033234782211
 70
     32
  0
VERTEX
  8
MY3DLAYER
10
-7300.967250946485
20
-1113.296569092817
30
-326.4033234782211
 70
     32
  0
VERTEX
  8
MY3DLAYER
10
-7301.241977108372
20
-1112.633321466849
30
-326.4033234782211
 70
     32
  0
VERTEX
  8
MY3DLAYER
10
-7301.679003320517
20
-1112.0637778185862
30
-326.4033234782211
 70
     32
  0
VERTEX
  8
MY3DLAYER
10
-7302.248546968781
20
-1111.626751606442
30
-326.4033234782211
 70
     32
  0
VERTEX
  8
MY3DLAYER
10
-7302.911794594748
20
-1111.3520254445543
30
-326.4033234782211
 70
     32
  0
VERTEX
  8
MY3DLAYER
10
-7303.623546968779
20
-1111.2583214668493
30
-326.4033234782211
 70
     32
  0
VERTEX
  8
MY3DLAYER
10
-7304.335299342811
20
-1111.3520254445543
30
-326.4033234782211
 70
     32
  0
VERTEX
  8
MY3DLAYER
10
-7304.99854696878
20
-1111.626751606442
30
-326.4033234782211
 70
     32
  0
VERTEX
  8
MY3DLAYER
10
-7305.568090617042
20
-1112.0637778185862
30
-326.4033234782211
 70
     32
  0
VERTEX
  8
MY3DLAYER
10
-7306.005116829187
20
-1112.633321466849
30
-326.4033234782211
 70
     32
  0
VERTEX
  8
MY3DLAYER
10
-7306.279842991074
20
-1113.296569092817
30
-326.4033234782211
 70
     32
  0
VERTEX
  8
MY3DLAYER
10
-7306.373546968779
20
-1114.0083214668487
30
-326.4033234782211
 70
     32
  0
VERTEX
  8
MY3DLAYER
10
-7306.279842991074
20
-1114.7200738408806
30
-326.4033234782211
 70
     32
  0
VERTEX
  8
MY3DLAYER
10
-7306.005116829187
20
-1115.3833214668484
30
-326.4033234782211
 70
     32
  0
VERTEX
  8
MY3DLAYER
10
-7305.568090617042
20
-1115.9528651151113
30
-326.4033234782211
 70
     32
  0
VERTEX
  8
MY3DLAYER
10
-7304.998546968778
20
-1116.3898913272553
30
-326.4033234782211
 70
     32
  0
VERTEX
  8
MY3DLAYER
10
-7304.335299342811
20
-1116.664617489143
30
-326.4033234782211
 70
     32
  0
VERTEX
  8
MY3DLAYER
10
-7303.623546968779
20
-1116.7583214668482
30
-326.4033234782211
 70
     32
  0
VERTEX
  8
MY3DLAYER
10
-7302.911794594748
20
-1116.664617489143
30
-326.4033234782211
 70
     32
  0
SEQEND
  0
POLYLINE
 8
Layer0
 66
     1
70
    8
 10
0.0
 20
 0.0
 30
0.0
  0
VERTEX
  8
MY3DLAYER
10
-7302.248546968779
20
-1076.3898913272556
30
-326.4033234782211
 70
     32
  0
VERTEX
  8
MY3DLAYER
10
-7301.679003320517
20
-1075.9528651151115
30
-326.4033234782211
 70
     32
  0
VERTEX
  8
MY3DLAYER
10
-7301.241977108372
20
-1075.3833214668487
30
-326.4033234782211
 70
     32
  0
VERTEX
  8
MY3DLAYER
10
-7300.967250946485
20
-1074.7200738408808
30
-326.4033234782211
 70
     32
  0
VERTEX
  8
MY3DLAYER
10
-7300.87354696878
20
-1074.0083214668489
30
-326.4033234782211
 70
     32
  0
VERTEX
  8
MY3DLAYER
10
-7300.967250946485
20
-1073.2965690928172
30
-326.4033234782211
 70
     32
  0
VERTEX
  8
MY3DLAYER
10
-7301.241977108372
20
-1072.6333214668493
30
-326.4033234782211
 70
     32
  0
VERTEX
  8
MY3DLAYER
10
-7301.679003320517
20
-1072.0637778185865
30
-326.4033234782211
 70
     32
  0
VERTEX
  8
MY3DLAYER
10
-7302.248546968781
20
-1071.6267516064424
30
-326.4033234782211
 70
     32
  0
VERTEX
  8
MY3DLAYER
10
-7302.911794594748
20
-1071.3520254445546
30
-326.4033234782211
 70
     32
  0
VERTEX
  8
MY3DLAYER
10
-7303.623546968779
20
-1071.2583214668496
30
-326.4033234782211
 70
     32
  0
VERTEX
  8
MY3DLAYER
10
-7304.335299342811
20
-1071.3520254445546
30
-326.4033234782211
 70
     32
  0
VERTEX
  8
MY3DLAYER
10
-7304.99854696878
20
-1071.6267516064424
30
-326.4033234782211
 70
     32
  0
VERTEX
  8
MY3DLAYER
10
-7305.568090617042
20
-1072.0637778185865
30
-326.4033234782211
 70
     32
  0
VERTEX
  8
MY3DLAYER
10
-7306.005116829187
20
-1072.6333214668493
30
-326.4033234782211
 70
     32
  0
VERTEX
  8
MY3DLAYER
10
-7306.279842991074
20
-1073.2965690928172
30
-326.4033234782211
 70
     32
  0
VERTEX
  8
MY3DLAYER
10
-7306.373546968779
20
-1074.0083214668489
30
-326.4033234782211
 70
     32
  0
VERTEX
  8
MY3DLAYER
10
-7306.279842991074
20
-1074.7200738408808
30
-326.4033234782211
 70
     32
  0
VERTEX
  8
MY3DLAYER
10
-7306.005116829187
20
-1075.3833214668487
30
-326.4033234782211
 70
     32
  0
VERTEX
  8
MY3DLAYER
10
-7305.568090617042
20
-1075.9528651151115
30
-326.4033234782211
 70
     32
  0
VERTEX
  8
MY3DLAYER
10
-7304.998546968778
20
-1076.3898913272556
30
-326.4033234782211
 70
     32
  0
VERTEX
  8
MY3DLAYER
10
-7304.335299342811
20
-1076.6646174891434
30
-326.4033234782211
 70
     32
  0
VERTEX
  8
MY3DLAYER
10
-7303.623546968779
20
-1076.7583214668484
30
-326.4033234782211
 70
     32
  0
VERTEX
  8
MY3DLAYER
10
-7302.911794594748
20
-1076.6646174891434
30
-326.4033234782211
 70
     32
  0
VERTEX
  8
MY3DLAYER
10
-7302.248546968779
20
-1076.3898913272556
30
-326.4033234782211
 70
     32
  0
SEQEND
  0
LINE
 8
X
10
-7339.200813890872
20
-1120.1143240211272
30
-326.4033234782211
11
-7346.448578897258
21
-1120.1143240211272
31
-326.4033234782211
  0
LINE
 8
X
10
-7346.448578897258
20
-1120.1143240211272
30
-326.4033234782211
11
-7358.038617211434
21
-1101.0849498193393
31
-326.4033234782211
  0
LINE
 8
X
10
-7358.038617211434
20
-1101.0849498193393
30
-326.4033234782211
11
-7369.820226406836
21
-1120.1143240211272
31
-326.4033234782211
  0
LINE
 8
X
10
-7369.820226406836
20
-1120.1143240211272
30
-326.4033234782211
11
-7376.652921170566
21
-1120.1143240211272
31
-326.4033234782211
  0
LINE
 8
X
10
-7376.652921170566
20
-1120.1143240211272
30
-326.4033234782211
11
-7361.550750033911
21
-1096.3276062688922
31
-326.4033234782211
  0
LINE
 8
X
10
-7361.550750033911
20
-1096.3276062688922
30
-326.4033234782211
11
-7376.205922447705
21
-1072.5728169968615
31
-326.4033234782211
  0
LINE
 8
X
10
-7376.205922447705
20
-1072.5728169968615
30
-326.4033234782211
11
-7368.990085921523
21
-1072.5728169968615
31
-326.4033234782211
  0
LINE
 8
X
10
-7368.990085921523
20
-1072.5728169968615
30
-326.4033234782211
11
-7357.623546968777
21
-1091.2509779164018
31
-326.4033234782211
  0
LINE
 8
X
10
-7357.623546968777
20
-1091.2509779164018
30
-326.4033234782211
11
-7346.09736561501
21
-1072.5728169968615
31
-326.4033234782211
  0
LINE
 8
X
10
-7346.09736561501
20
-1072.5728169968615
30
-326.4033234782211
11
-7339.232742371077
21
-1072.5728169968615
31
-326.4033234782211
  0
LINE
 8
X
10
-7339.232742371077
20
-1072.5728169968615
30
-326.4033234782211
11
-7354.1114141463
21
-1096.0083214668489
31
-326.4033234782211
  0
LINE
 8
X
10
-7354.1114141463
20
-1096.0083214668489
30
-326.4033234782211
11
-7339.200813890872
21
-1120.1143240211272
31
-326.4033234782211
  0
POLYLINE
 8
Component#3
 66
     1
70
    8
 10
0.0
 20
 0.0
 30
0.0
  0
VERTEX
  8
MY3DLAYER
10
-7517.623546968778
20
-1188.4365246971242
30
-326.4033234782211
 70
     32
  0
VERTEX
  8
MY3DLAYER
10
-7519.00398648517
20
-1189.0083214668487
30
-326.4033234782211
 70
     32
  0
VERTEX
  8
MY3DLAYER
10
-7524.243107452388
20
-1189.0083214668487
30
-326.4033234782211
 70
     32
  0
VERTEX
  8
MY3DLAYER
10
-7525.623546968778
20
-1188.4365246971242
30
-326.4033234782211
 70
     32
  0
VERTEX
  8
MY3DLAYER
10
-7527.280401218271
20
-1187.1651757163409
30
-326.4033234782211
 70
     32
  0
VERTEX
  8
MY3DLAYER
10
-7528.551750199054
20
-1185.5083214668487
30
-326.4033234782211
 70
     32
  0
VERTEX
  8
MY3DLAYER
10
-7529.350953579091
20
-1183.5788738276688
30
-326.4033234782211
 70
     32
  0
VERTEX
  8
MY3DLAYER
10
-7529.623546968779
20
-1181.5083214668487
30
-326.4033234782211
 70
     32
  0
VERTEX
  8
MY3DLAYER
10
-7529.350953579091
20
-1179.4377691060283
30
-326.4033234782211
 70
     32
  0
VERTEX
  8
MY3DLAYER
10
-7528.551750199054
20
-1177.5083214668487
30
-326.4033234782211
 70
     32
  0
VERTEX
  8
MY3DLAYER
10
-7527.2804012182705
20
-1175.8514672173562
30
-326.4033234782211
 70
     32
  0
VERTEX
  8
MY3DLAYER
10
-7525.623546968778
20
-1174.580118236573
30
-326.4033234782211
 70
     32
  0
VERTEX
  8
MY3DLAYER
10
-7524.243107452388
20
-1174.0083214668487
30
-326.4033234782211
 70
     32
  0
VERTEX
  8
MY3DLAYER
10
-7519.00398648517
20
-1174.0083214668487
30
-326.4033234782211
 70
     32
  0
VERTEX
  8
MY3DLAYER
10
-7517.623546968778
20
-1174.580118236573
30
-326.4033234782211
 70
     32
  0
VERTEX
  8
MY3DLAYER
10
-7515.966692719287
20
-1175.8514672173562
30
-326.4033234782211
 70
     32
  0
VERTEX
  8
MY3DLAYER
10
-7514.695343738503
20
-1177.5083214668487
30
-326.4033234782211
 70
     32
  0
VERTEX
  8
MY3DLAYER
10
-7513.896140358466
20
-1179.4377691060283
30
-326.4033234782211
 70
     32
  0
VERTEX
  8
MY3DLAYER
10
-7513.623546968779
20
-1181.5083214668487
30
-326.4033234782211
 70
     32
  0
VERTEX
  8
MY3DLAYER
10
-7513.896140358466
20
-1183.5788738276688
30
-326.4033234782211
 70
     32
  0
VERTEX
  8
MY3DLAYER
10
-7514.695343738503
20
-1185.5083214668487
30
-326.4033234782211
 70
     32
  0
VERTEX
  8
MY3DLAYER
10
-7515.966692719287
20
-1187.1651757163409
30
-326.4033234782211
 70
     32
  0
VERTEX
  8
MY3DLAYER
10
-7517.623546968778
20
-1188.4365246971242
30
-326.4033234782211
 70
     32
  0
SEQEND
  0
POLYLINE
 8
Component#3
 66
     1
70
    8
 10
0.0
 20
 0.0
 30
0.0
  0
VERTEX
  8
MY3DLAYER
10
-7514.560717282364
20
-1189.9413776637855
30
-326.4033234782211
 70
     32
  0
VERTEX
  8
MY3DLAYER
10
-7516.984012920177
20
-1191.4820230771766
30
-326.4033234782211
 70
     32
  0
VERTEX
  8
MY3DLAYER
10
-7519.723485136209
20
-1192.3429772081454
30
-326.4033234782211
 70
     32
  0
VERTEX
  8
MY3DLAYER
10
-7522.59244342613
20
-1192.4655674554597
30
-326.4033234782211
 70
     32
  0
VERTEX
  8
MY3DLAYER
10
-7525.39537302366
20
-1191.8414394963552
30
-326.4033234782211
 70
     32
  0
VERTEX
  8
MY3DLAYER
10
-7527.941258908788
20
-1190.513126619825
30
-326.4033234782211
 70
     32
  0
VERTEX
  8
MY3DLAYER
10
-7530.0566031657145
20
-1188.5711511532636
30
-326.4033234782211
 70
     32
  0
VERTEX
  8
MY3DLAYER
10
-7531.597248579107
20
-1186.1478555154508
30
-326.4033234782211
 70
     32
  0
VERTEX
  8
MY3DLAYER
10
-7532.458202710075
20
-1183.4083832994183
30
-326.4033234782211
 70
     32
  0
VERTEX
  8
MY3DLAYER
10
-7532.580792957389
20
-1180.5394250094969
30
-326.4033234782211
 70
     32
  0
VERTEX
  8
MY3DLAYER
10
-7531.956664998285
20
-1177.7364954119669
30
-326.4033234782211
 70
     32
  0
VERTEX
  8
MY3DLAYER
10
-7530.628352121755
20
-1175.1906095268398
30
-326.4033234782211
 70
     32
  0
VERTEX
  8
MY3DLAYER
10
-7528.686376655194
20
-1173.0752652699116
30
-326.4033234782211
 70
     32
  0
VERTEX
  8
MY3DLAYER
10
-7526.2630810173805
20
-1171.5346198565205
30
-326.4033234782211
 70
     32
  0
VERTEX
  8
MY3DLAYER
10
-7523.523608801348
20
-1170.6736657255522
30
-326.4033234782211
 70
     32
  0
VERTEX
  8
MY3DLAYER
10
-7520.654650511427
20
-1170.5510754782376
30
-326.4033234782211
 70
     32
  0
VERTEX
  8
MY3DLAYER
10
-7517.851720913897
20
-1171.175203437342
30
-326.4033234782211
 70
     32
  0
VERTEX
  8
MY3DLAYER
10
-7515.30583502877
20
-1172.5035163138723
30
-326.4033234782211
 70
     32
  0
VERTEX
  8
MY3DLAYER
10
-7513.190490771842
20
-1174.4454917804337
30
-326.4033234782211
 70
     32
  0
VERTEX
  8
MY3DLAYER
10
-7511.649845358451
20
-1176.8687874182465
30
-326.4033234782211
 70
     32
  0
VERTEX
  8
MY3DLAYER
10
-7510.788891227482
20
-1179.608259634279
30
-326.4033234782211
 70
     32
  0
VERTEX
  8
MY3DLAYER
10
-7510.666300980168
20
-1182.4772179242004
30
-326.4033234782211
 70
     32
  0
VERTEX
  8
MY3DLAYER
10
-7511.290428939271
20
-1185.2801475217304
30
-326.4033234782211
 70
     32
  0
VERTEX
  8
MY3DLAYER
10
-7512.6187418158015
20
-1187.8260334068573
30
-326.4033234782211
 70
     32
  0
VERTEX
  8
MY3DLAYER
10
-7514.560717282364
20
-1189.9413776637855
30
-326.4033234782211
 70
     32
  0
SEQEND
  0
POLYLINE
 8
Component#3
 66
     1
70
    8
 10
0.0
 20
 0.0
 30
0.0
  0
VERTEX
  8
MY3DLAYER
10
-7519.00398648517
20
-1189.0083214668487
30
-326.4033234782211
 70
     32
  0
VERTEX
  8
MY3DLAYER
10
-7517.623546968778
20
-1188.4365246971242
30
-326.4033234782211
 70
     32
  0
VERTEX
  8
MY3DLAYER
10
-7515.966692719287
20
-1187.1651757163409
30
-326.4033234782211
 70
     32
  0
VERTEX
  8
MY3DLAYER
10
-7514.695343738503
20
-1185.5083214668487
30
-326.4033234782211
 70
     32
  0
VERTEX
  8
MY3DLAYER
10
-7513.896140358466
20
-1183.5788738276688
30
-326.4033234782211
 70
     32
  0
VERTEX
  8
MY3DLAYER
10
-7513.623546968779
20
-1181.5083214668487
30
-326.4033234782211
 70
     32
  0
VERTEX
  8
MY3DLAYER
10
-7513.896140358466
20
-1179.4377691060283
30
-326.4033234782211
 70
     32
  0
VERTEX
  8
MY3DLAYER
10
-7514.695343738503
20
-1177.5083214668487
30
-326.4033234782211
 70
     32
  0
VERTEX
  8
MY3DLAYER
10
-7515.966692719287
20
-1175.8514672173562
30
-326.4033234782211
 70
     32
  0
VERTEX
  8
MY3DLAYER
10
-7517.623546968778
20
-1174.580118236573
30
-326.4033234782211
 70
     32
  0
VERTEX
  8
MY3DLAYER
10
-7519.00398648517
20
-1174.0083214668487
30
-326.4033234782211
 70
     32
  0
VERTEX
  8
MY3DLAYER
10
-7524.243107452388
20
-1174.0083214668487
30
-326.4033234782211
 70
     32
  0
VERTEX
  8
MY3DLAYER
10
-7525.623546968778
20
-1174.580118236573
30
-326.4033234782211
 70
     32
  0
VERTEX
  8
MY3DLAYER
10
-7527.2804012182705
20
-1175.8514672173562
30
-326.4033234782211
 70
     32
  0
VERTEX
  8
MY3DLAYER
10
-7528.551750199054
20
-1177.5083214668487
30
-326.4033234782211
 70
     32
  0
VERTEX
  8
MY3DLAYER
10
-7529.350953579091
20
-1179.4377691060283
30
-326.4033234782211
 70
     32
  0
VERTEX
  8
MY3DLAYER
10
-7529.623546968779
20
-1181.5083214668487
30
-326.4033234782211
 70
     32
  0
VERTEX
  8
MY3DLAYER
10
-7529.350953579091
20
-1183.5788738276688
30
-326.4033234782211
 70
     32
  0
VERTEX
  8
MY3DLAYER
10
-7528.551750199054
20
-1185.5083214668487
30
-326.4033234782211
 70
     32
  0
VERTEX
  8
MY3DLAYER
10
-7527.280401218271
20
-1187.1651757163409
30
-326.4033234782211
 70
     32
  0
VERTEX
  8
MY3DLAYER
10
-7525.623546968778
20
-1188.4365246971242
30
-326.4033234782211
 70
     32
  0
VERTEX
  8
MY3DLAYER
10
-7524.243107452388
20
-1189.0083214668487
30
-326.4033234782211
 70
     32
  0
VERTEX
  8
MY3DLAYER
10
-7519.00398648517
20
-1189.0083214668487
30
-326.4033234782211
 70
     32
  0
SEQEND
  0
POLYLINE
 8
Layer0
 66
     1
70
    8
 10
0.0
 20
 0.0
 30
0.0
  0
VERTEX
  8
MY3DLAYER
10
-7403.106459309968
20
-1178.9004543328983
30
-326.4033234782211
 70
     32
  0
VERTEX
  8
MY3DLAYER
10
-7403.7308959786205
20
-1179.3731212067535
30
-326.4033234782211
 70
     32
  0
VERTEX
  8
MY3DLAYER
10
-7404.21172029481
20
-1179.991298449749
30
-326.4033234782211
 70
     32
  0
VERTEX
  8
MY3DLAYER
10
-7404.5161648759895
20
-1180.712858304361
30
-326.4033234782211
 70
     32
  0
VERTEX
  8
MY3DLAYER
10
-7404.62348232707
20
-1181.4886276589311
30
-326.4033234782211
 70
     32
  0
VERTEX
  8
MY3DLAYER
10
-7404.526359141108
20
-1182.2657391139655
30
-326.4033234782211
 70
     32
  0
VERTEX
  8
MY3DLAYER
10
-7404.231414102728
20
-1182.9912338080408
30
-326.4033234782211
 70
     32
  0
VERTEX
  8
MY3DLAYER
10
-7403.758747228872
20
-1183.615670476692
30
-326.4033234782211
 70
     32
  0
VERTEX
  8
MY3DLAYER
10
-7403.140569985877
20
-1184.0964947928817
30
-326.4033234782211
 70
     32
  0
VERTEX
  8
MY3DLAYER
10
-7402.419010131264
20
-1184.4009393740605
30
-326.4033234782211
 70
     32
  0
VERTEX
  8
MY3DLAYER
10
-7401.643240776695
20
-1184.5082568251403
30
-326.4033234782211
 70
     32
  0
VERTEX
  8
MY3DLAYER
10
-7400.866129321661
20
-1184.4111336391798
30
-326.4033234782211
 70
     32
  0
VERTEX
  8
MY3DLAYER
10
-7400.140634627586
20
-1184.1161886007992
30
-326.4033234782211
 70
     32
  0
VERTEX
  8
MY3DLAYER
10
-7399.516197958934
20
-1183.6435217269438
30
-326.4033234782211
 70
     32
  0
VERTEX
  8
MY3DLAYER
10
-7399.035373642744
20
-1183.0253444839484
30
-326.4033234782211
 70
     32
  0
VERTEX
  8
MY3DLAYER
10
-7398.730929061566
20
-1182.3037846293366
30
-326.4033234782211
 70
     32
  0
VERTEX
  8
MY3DLAYER
10
-7398.623611610486
20
-1181.5280152747662
30
-326.4033234782211
 70
     32
  0
VERTEX
  8
MY3DLAYER
10
-7398.720734796447
20
-1180.750903819732
30
-326.4033234782211
 70
     32
  0
VERTEX
  8
MY3DLAYER
10
-7399.015679834826
20
-1180.0254091256568
30
-326.4033234782211
 70
     32
  0
VERTEX
  8
MY3DLAYER
10
-7399.488346708682
20
-1179.4009724570053
30
-326.4033234782211
 70
     32
  0
VERTEX
  8
MY3DLAYER
10
-7400.106523951677
20
-1178.9201481408159
30
-326.4033234782211
 70
     32
  0
VERTEX
  8
MY3DLAYER
10
-7400.82808380629
20
-1178.6157035596368
30
-326.4033234782211
 70
     32
  0
VERTEX
  8
MY3DLAYER
10
-7401.603853160859
20
-1178.5083861085573
30
-326.4033234782211
 70
     32
  0
VERTEX
  8
MY3DLAYER
10
-7402.380964615894
20
-1178.6055092945176
30
-326.4033234782211
 70
     32
  0
VERTEX
  8
MY3DLAYER
10
-7403.106459309968
20
-1178.9004543328983
30
-326.4033234782211
 70
     32
  0
SEQEND
  0
POLYLINE
 8
Layer0
 66
     1
70
    8
 10
0.0
 20
 0.0
 30
0.0
  0
VERTEX
  8
MY3DLAYER
10
-7493.623546968787
20
-1117.6083214668477
30
-326.4033234782211
 70
     32
  0
VERTEX
  8
MY3DLAYER
10
-7493.623546968787
20
-1070.4083214668494
30
-326.4033234782211
 70
     32
  0
VERTEX
  8
MY3DLAYER
10
-7520.823546968786
20
-1070.4083214668499
30
-326.4033234782211
 70
     32
  0
VERTEX
  8
MY3DLAYER
10
-7520.8235469687825
20
-1117.6083214668477
30
-326.4033234782211
 70
     32
  0
VERTEX
  8
MY3DLAYER
10
-7493.623546968787
20
-1117.6083214668477
30
-326.4033234782211
 70
     32
  0
SEQEND
  0
POLYLINE
 8
Layer0
 66
     1
70
    8
 10
0.0
 20
 0.0
 30
0.0
  0
VERTEX
  8
MY3DLAYER
10
-7485.2985008767755
20
-1095.1730950687258
30
-326.4033234782211
 70
     32
  0
VERTEX
  8
MY3DLAYER
10
-7485.06262964031
20
-1094.63516777937
30
-326.4033234782211
 70
     32
  0
VERTEX
  8
MY3DLAYER
10
-7484.9740213487175
20
-1094.054521949729
30
-326.4033234782211
 70
     32
  0
VERTEX
  8
MY3DLAYER
10
-7485.038714510598
20
-1093.4707276335293
30
-326.4033234782211
 70
     32
  0
VERTEX
  8
MY3DLAYER
10
-7485.252300393903
20
-1092.923569448653
30
-326.4033234782211
 70
     32
  0
VERTEX
  8
MY3DLAYER
10
-7485.600223473642
20
-1092.4503353211787
30
-326.4033234782211
 70
     32
  0
VERTEX
  8
MY3DLAYER
10
-7486.058773366909
20
-1092.0832753748361
30
-326.4033234782211
 70
     32
  0
VERTEX
  8
MY3DLAYER
10
-7486.596700656265
20
-1091.8474041383818
30
-326.4033234782211
 70
     32
  0
VERTEX
  8
MY3DLAYER
10
-7487.17734648591
20
-1091.7587958467743
30
-326.4033234782211
 70
     32
  0
VERTEX
  8
MY3DLAYER
10
-7487.761140802111
20
-1091.8234890086555
30
-326.4033234782211
 70
     32
  0
VERTEX
  8
MY3DLAYER
10
-7488.308298986981
20
-1092.0370748919593
30
-326.4033234782211
 70
     32
  0
VERTEX
  8
MY3DLAYER
10
-7488.78153311446
20
-1092.3849979717002
30
-326.4033234782211
 70
     32
  0
VERTEX
  8
MY3DLAYER
10
-7489.148593060801
20
-1092.8435478649717
30
-326.4033234782211
 70
     32
  0
VERTEX
  8
MY3DLAYER
10
-7489.384464297258
20
-1093.3814751543293
30
-326.4033234782211
 70
     32
  0
VERTEX
  8
MY3DLAYER
10
-7489.47307258886
20
-1093.9621209839704
30
-326.4033234782211
 70
     32
  0
VERTEX
  8
MY3DLAYER
10
-7489.408379426983
20
-1094.5459153001716
30
-326.4033234782211
 70
     32
  0
VERTEX
  8
MY3DLAYER
10
-7489.194793543672
20
-1095.0930734850476
30
-326.4033234782211
 70
     32
  0
VERTEX
  8
MY3DLAYER
10
-7488.846870463941
20
-1095.566307612524
30
-326.4033234782211
 70
     32
  0
VERTEX
  8
MY3DLAYER
10
-7488.38832057067
20
-1095.9333675588643
30
-326.4033234782211
 70
     32
  0
VERTEX
  8
MY3DLAYER
10
-7487.850393281307
20
-1096.1692387953171
30
-326.4033234782211
 70
     32
  0
VERTEX
  8
MY3DLAYER
10
-7487.2697474516635
20
-1096.257847086925
30
-326.4033234782211
 70
     32
  0
VERTEX
  8
MY3DLAYER
10
-7486.685953135457
20
-1096.1931539250402
30
-326.4033234782211
 70
     32
  0
VERTEX
  8
MY3DLAYER
10
-7486.138794950584
20
-1095.9795680417367
30
-326.4033234782211
 70
     32
  0
VERTEX
  8
MY3DLAYER
10
-7485.665560823109
20
-1095.631644961992
30
-326.4033234782211
 70
     32
  0
VERTEX
  8
MY3DLAYER
10
-7485.2985008767755
20
-1095.1730950687258
30
-326.4033234782211
 70
     32
  0
SEQEND
  0
POLYLINE
 8
Layer0
 66
     1
70
    8
 10
0.0
 20
 0.0
 30
0.0
  0
VERTEX
  8
MY3DLAYER
10
-7524.973632719213
20
-1094.0279650306616
30
-326.4033234782211
 70
     32
  0
VERTEX
  8
MY3DLAYER
10
-7525.045212559767
20
-1093.4449750348244
30
-326.4033234782211
 70
     32
  0
VERTEX
  8
MY3DLAYER
10
-7525.265242290414
20
-1092.900376167348
30
-326.4033234782211
 70
     32
  0
VERTEX
  8
MY3DLAYER
10
-7525.618727248653
20
-1092.4312819410693
30
-326.4033234782211
 70
     32
  0
VERTEX
  8
MY3DLAYER
10
-7526.081578018718
20
-1092.069660352295
30
-326.4033234782211
 70
     32
  0
VERTEX
  8
MY3DLAYER
10
-7526.622252085543
20
-1091.8401553146875
30
-326.4033234782211
 70
     32
  0
VERTEX
  8
MY3DLAYER
10
-7527.203903404979
20
-1091.758407217285
30
-326.4033234782211
 70
     32
  0
VERTEX
  8
MY3DLAYER
10
-7527.786893400812
20
-1091.8299870578273
30
-326.4033234782211
 70
     32
  0
VERTEX
  8
MY3DLAYER
10
-7528.331492268283
20
-1092.0500167884798
30
-326.4033234782211
 70
     32
  0
VERTEX
  8
MY3DLAYER
10
-7528.800586494556
20
-1092.4035017467056
30
-326.4033234782211
 70
     32
  0
VERTEX
  8
MY3DLAYER
10
-7529.162208083341
20
-1092.8663525167774
30
-326.4033234782211
 70
     32
  0
VERTEX
  8
MY3DLAYER
10
-7529.3917131209455
20
-1093.4070265836008
30
-326.4033234782211
 70
     32
  0
VERTEX
  8
MY3DLAYER
10
-7529.47346121835
20
-1093.988677903032
30
-326.4033234782211
 70
     32
  0
VERTEX
  8
MY3DLAYER
10
-7529.40188137781
20
-1094.571667898871
30
-326.4033234782211
 70
     32
  0
VERTEX
  8
MY3DLAYER
10
-7529.18185164716
20
-1095.1162667663516
30
-326.4033234782211
 70
     32
  0
VERTEX
  8
MY3DLAYER
10
-7528.82836668893
20
-1095.5853609926255
30
-326.4033234782211
 70
     32
  0
VERTEX
  8
MY3DLAYER
10
-7528.365515918855
20
-1095.9469825814015
30
-326.4033234782211
 70
     32
  0
VERTEX
  8
MY3DLAYER
10
-7527.824841852034
20
-1096.1764876190134
30
-326.4033234782211
 70
     32
  0
VERTEX
  8
MY3DLAYER
10
-7527.243190532601
20
-1096.2582357164176
30
-326.4033234782211
 70
     32
  0
VERTEX
  8
MY3DLAYER
10
-7526.660200536764
20
-1096.1866558758725
30
-326.4033234782211
 70
     32
  0
VERTEX
  8
MY3DLAYER
10
-7526.115601669286
20
-1095.966626145218
30
-326.4033234782211
 70
     32
  0
VERTEX
  8
MY3DLAYER
10
-7525.646507443007
20
-1095.6131411869828
30
-326.4033234782211
 70
     32
  0
VERTEX
  8
MY3DLAYER
10
-7525.284885854231
20
-1095.1502904169154
30
-326.4033234782211
 70
     32
  0
VERTEX
  8
MY3DLAYER
10
-7525.055380816623
20
-1094.609616350094
30
-326.4033234782211
 70
     32
  0
VERTEX
  8
MY3DLAYER
10
-7524.973632719213
20
-1094.0279650306616
30
-326.4033234782211
 70
     32
  0
SEQEND
  0
POLYLINE
 8
Layer0
 66
     1
70
    8
 10
0.0
 20
 0.0
 30
0.0
  0
VERTEX
  8
MY3DLAYER
10
-7459.981189636519
20
-1107.5687700530552
30
-326.4033234782211
 70
     32
  0
VERTEX
  8
MY3DLAYER
10
-7460.5001549151675
20
-1107.6259402309843
30
-326.4033234782211
 70
     32
  0
VERTEX
  8
MY3DLAYER
10
-7460.986640149902
20
-1107.8154804802007
30
-326.4033234782211
 70
     32
  0
VERTEX
  8
MY3DLAYER
10
-7461.407492175929
20
-1108.1244739459505
30
-326.4033234782211
 70
     32
  0
VERTEX
  8
MY3DLAYER
10
-7461.734030623166
20
-1108.5318632341787
30
-326.4033234782211
 70
     32
  0
VERTEX
  8
MY3DLAYER
10
-7461.944002436066
20
-1109.0098854381351
30
-326.4033234782211
 70
     32
  0
VERTEX
  8
MY3DLAYER
10
-7462.023098382571
20
-1109.5259641345892
30
-326.4033234782211
 70
     32
  0
VERTEX
  8
MY3DLAYER
10
-7461.965928204643
20
-1110.0449294132382
30
-326.4033234782211
 70
     32
  0
VERTEX
  8
MY3DLAYER
10
-7461.776387955427
20
-1110.5314146479723
30
-326.4033234782211
 70
     32
  0
VERTEX
  8
MY3DLAYER
10
-7461.467394489677
20
-1110.9522666739997
30
-326.4033234782211
 70
     32
  0
VERTEX
  8
MY3DLAYER
10
-7461.060005201448
20
-1111.2788051212376
30
-326.4033234782211
 70
     32
  0
VERTEX
  8
MY3DLAYER
10
-7460.581982997493
20
-1111.4887769341365
30
-326.4033234782211
 70
     32
  0
VERTEX
  8
MY3DLAYER
10
-7460.065904301037
20
-1111.5678728806427
30
-326.4033234782211
 70
     32
  0
VERTEX
  8
MY3DLAYER
10
-7459.54693902239
20
-1111.5107027027134
30
-326.4033234782211
 70
     32
  0
VERTEX
  8
MY3DLAYER
10
-7459.060453787655
20
-1111.3211624534972
30
-326.4033234782211
 70
     32
  0
VERTEX
  8
MY3DLAYER
10
-7458.639601761628
20
-1111.0121689877471
30
-326.4033234782211
 70
     32
  0
VERTEX
  8
MY3DLAYER
10
-7458.313063314391
20
-1110.6047796995192
30
-326.4033234782211
 70
     32
  0
VERTEX
  8
MY3DLAYER
10
-7458.103091501491
20
-1110.1267574955625
30
-326.4033234782211
 70
     32
  0
VERTEX
  8
MY3DLAYER
10
-7458.023995554986
20
-1109.6106787991087
30
-326.4033234782211
 70
     32
  0
VERTEX
  8
MY3DLAYER
10
-7458.081165732914
20
-1109.0917135204597
30
-326.4033234782211
 70
     32
  0
VERTEX
  8
MY3DLAYER
10
-7458.2707059821305
20
-1108.6052282857256
30
-326.4033234782211
 70
     32
  0
VERTEX
  8
MY3DLAYER
10
-7458.579699447881
20
-1108.1843762596982
30
-326.4033234782211
 70
     32
  0
VERTEX
  8
MY3DLAYER
10
-7458.9870887361085
20
-1107.8578378124603
30
-326.4033234782211
 70
     32
  0
VERTEX
  8
MY3DLAYER
10
-7459.465110940064
20
-1107.6478659995614
30
-326.4033234782211
 70
     32
  0
VERTEX
  8
MY3DLAYER
10
-7459.981189636519
20
-1107.5687700530552
30
-326.4033234782211
 70
     32
  0
SEQEND
  0
POLYLINE
 8
Layer0
 66
     1
70
    8
 10
0.0
 20
 0.0
 30
0.0
  0
VERTEX
  8
MY3DLAYER
10
-7542.248546968778
20
-1145.8898913272556
30
-326.4033234782211
 70
     32
  0
VERTEX
  8
MY3DLAYER
10
-7541.679003320516
20
-1145.4528651151113
30
-326.4033234782211
 70
     32
  0
VERTEX
  8
MY3DLAYER
10
-7541.241977108371
20
-1144.8833214668487
30
-326.4033234782211
 70
     32
  0
VERTEX
  8
MY3DLAYER
10
-7540.9672509464845
20
-1144.2200738408808
30
-326.4033234782211
 70
     32
  0
VERTEX
  8
MY3DLAYER
10
-7540.873546968779
20
-1143.5083214668489
30
-326.4033234782211
 70
     32
  0
VERTEX
  8
MY3DLAYER
10
-7540.9672509464845
20
-1142.796569092817
30
-326.4033234782211
 70
     32
  0
VERTEX
  8
MY3DLAYER
10
-7541.241977108371
20
-1142.133321466849
30
-326.4033234782211
 70
     32
  0
VERTEX
  8
MY3DLAYER
10
-7541.679003320516
20
-1141.5637778185862
30
-326.4033234782211
 70
     32
  0
VERTEX
  8
MY3DLAYER
10
-7542.248546968779
20
-1141.1267516064422
30
-326.4033234782211
 70
     32
  0
VERTEX
  8
MY3DLAYER
10
-7542.911794594746
20
-1140.8520254445546
30
-326.4033234782211
 70
     32
  0
VERTEX
  8
MY3DLAYER
10
-7543.623546968778
20
-1140.7583214668496
30
-326.4033234782211
 70
     32
  0
VERTEX
  8
MY3DLAYER
10
-7544.33529934281
20
-1140.8520254445546
30
-326.4033234782211
 70
     32
  0
VERTEX
  8
MY3DLAYER
10
-7544.998546968779
20
-1141.1267516064422
30
-326.4033234782211
 70
     32
  0
VERTEX
  8
MY3DLAYER
10
-7545.568090617041
20
-1141.5637778185862
30
-326.4033234782211
 70
     32
  0
VERTEX
  8
MY3DLAYER
10
-7546.005116829186
20
-1142.133321466849
30
-326.4033234782211
 70
     32
  0
VERTEX
  8
MY3DLAYER
10
-7546.279842991073
20
-1142.796569092817
30
-326.4033234782211
 70
     32
  0
VERTEX
  8
MY3DLAYER
10
-7546.373546968778
20
-1143.5083214668489
30
-326.4033234782211
 70
     32
  0
VERTEX
  8
MY3DLAYER
10
-7546.279842991073
20
-1144.2200738408808
30
-326.4033234782211
 70
     32
  0
VERTEX
  8
MY3DLAYER
10
-7546.005116829186
20
-1144.8833214668487
30
-326.4033234782211
 70
     32
  0
VERTEX
  8
MY3DLAYER
10
-7545.568090617041
20
-1145.4528651151113
30
-326.4033234782211
 70
     32
  0
VERTEX
  8
MY3DLAYER
10
-7544.998546968777
20
-1145.8898913272556
30
-326.4033234782211
 70
     32
  0
VERTEX
  8
MY3DLAYER
10
-7544.33529934281
20
-1146.1646174891432
30
-326.4033234782211
 70
     32
  0
VERTEX
  8
MY3DLAYER
10
-7543.623546968778
20
-1146.2583214668482
30
-326.4033234782211
 70
     32
  0
VERTEX
  8
MY3DLAYER
10
-7542.911794594746
20
-1146.1646174891432
30
-326.4033234782211
 70
     32
  0
VERTEX
  8
MY3DLAYER
10
-7542.248546968778
20
-1145.8898913272556
30
-326.4033234782211
 70
     32
  0
SEQEND
  0
POLYLINE
 8
Layer0
 66
     1
70
    8
 10
0.0
 20
 0.0
 30
0.0
  0
VERTEX
  8
MY3DLAYER
10
-7295.123546968778
20
-1130.5083214668487
30
-326.4033234782211
 70
     32
  0
VERTEX
  8
MY3DLAYER
10
-7552.123546968779
20
-1130.5083214668487
30
-326.4033234782211
 70
     32
  0
VERTEX
  8
MY3DLAYER
10
-7552.511775536434
20
-1130.559432727415
30
-326.4033234782211
 70
     32
  0
VERTEX
  8
MY3DLAYER
10
-7552.873546968779
20
-1130.709283361172
30
-326.4033234782211
 70
     32
  0
VERTEX
  8
MY3DLAYER
10
-7553.18420714056
20
-1130.9476612950689
30
-326.4033234782211
 70
     32
  0
VERTEX
  8
MY3DLAYER
10
-7553.422585074456
20
-1131.2583214668487
30
-326.4033234782211
 70
     32
  0
VERTEX
  8
MY3DLAYER
10
-7553.572435708213
20
-1131.620092899195
30
-326.4033234782211
 70
     32
  0
VERTEX
  8
MY3DLAYER
10
-7553.623546968779
20
-1132.0083214668489
30
-326.4033234782211
 70
     32
  0
VERTEX
  8
MY3DLAYER
10
-7553.623546968779
20
-1195.0083214668487
30
-326.4033234782211
 70
     32
  0
VERTEX
  8
MY3DLAYER
10
-7553.572435708213
20
-1195.3965500345023
30
-326.4033234782211
 70
     32
  0
VERTEX
  8
MY3DLAYER
10
-7553.422585074456
20
-1195.7583214668484
30
-326.4033234782211
 70
     32
  0
VERTEX
  8
MY3DLAYER
10
-7553.184207140558
20
-1196.0689816386284
30
-326.4033234782211
 70
     32
  0
VERTEX
  8
MY3DLAYER
10
-7552.873546968779
20
-1196.307359572525
30
-326.4033234782211
 70
     32
  0
VERTEX
  8
MY3DLAYER
10
-7552.511775536434
20
-1196.457210206282
30
-326.4033234782211
 70
     32
  0
VERTEX
  8
MY3DLAYER
10
-7552.123546968779
20
-1196.5083214668484
30
-326.4033234782211
 70
     32
  0
VERTEX
  8
MY3DLAYER
10
-7295.123546968778
20
-1196.5083214668487
30
-326.4033234782211
 70
     32
  0
VERTEX
  8
MY3DLAYER
10
-7294.7353184011245
20
-1196.4572102062823
30
-326.4033234782211
 70
     32
  0
VERTEX
  8
MY3DLAYER
10
-7294.373546968779
20
-1196.3073595725255
30
-326.4033234782211
 70
     32
  0
VERTEX
  8
MY3DLAYER
10
-7294.062886796998
20
-1196.0689816386284
30
-326.4033234782211
 70
     32
  0
VERTEX
  8
MY3DLAYER
10
-7293.824508863102
20
-1195.7583214668487
30
-326.4033234782211
 70
     32
  0
VERTEX
  8
MY3DLAYER
10
-7293.674658229345
20
-1195.3965500345023
30
-326.4033234782211
 70
     32
  0
VERTEX
  8
MY3DLAYER
10
-7293.623546968779
20
-1195.0083214668487
30
-326.4033234782211
 70
     32
  0
VERTEX
  8
MY3DLAYER
10
-7293.623546968779
20
-1132.0083214668489
30
-326.4033234782211
 70
     32
  0
VERTEX
  8
MY3DLAYER
10
-7293.674658229345
20
-1131.620092899195
30
-326.4033234782211
 70
     32
  0
VERTEX
  8
MY3DLAYER
10
-7293.824508863102
20
-1131.2583214668487
30
-326.4033234782211
 70
     32
  0
VERTEX
  8
MY3DLAYER
10
-7294.062886796998
20
-1130.9476612950689
30
-326.4033234782211
 70
     32
  0
VERTEX
  8
MY3DLAYER
10
-7294.373546968779
20
-1130.709283361172
30
-326.4033234782211
 70
     32
  0
VERTEX
  8
MY3DLAYER
10
-7294.7353184011245
20
-1130.559432727415
30
-326.4033234782211
 70
     32
  0
VERTEX
  8
MY3DLAYER
10
-7295.123546968778
20
-1130.5083214668487
30
-326.4033234782211
 70
     32
  0
SEQEND
  0
POLYLINE
 8
Layer0
 66
     1
70
    8
 10
0.0
 20
 0.0
 30
0.0
  0
VERTEX
  8
MY3DLAYER
10
-7541.679003320516
20
-1145.4528651151113
30
-326.4033234782211
 70
     32
  0
VERTEX
  8
MY3DLAYER
10
-7542.248546968778
20
-1145.8898913272556
30
-326.4033234782211
 70
     32
  0
VERTEX
  8
MY3DLAYER
10
-7542.911794594746
20
-1146.1646174891432
30
-326.4033234782211
 70
     32
  0
VERTEX
  8
MY3DLAYER
10
-7543.623546968778
20
-1146.2583214668482
30
-326.4033234782211
 70
     32
  0
VERTEX
  8
MY3DLAYER
10
-7544.33529934281
20
-1146.1646174891432
30
-326.4033234782211
 70
     32
  0
VERTEX
  8
MY3DLAYER
10
-7544.998546968777
20
-1145.8898913272556
30
-326.4033234782211
 70
     32
  0
VERTEX
  8
MY3DLAYER
10
-7545.568090617041
20
-1145.4528651151113
30
-326.4033234782211
 70
     32
  0
VERTEX
  8
MY3DLAYER
10
-7546.005116829186
20
-1144.8833214668487
30
-326.4033234782211
 70
     32
  0
VERTEX
  8
MY3DLAYER
10
-7546.279842991073
20
-1144.2200738408808
30
-326.4033234782211
 70
     32
  0
VERTEX
  8
MY3DLAYER
10
-7546.373546968778
20
-1143.5083214668489
30
-326.4033234782211
 70
     32
  0
VERTEX
  8
MY3DLAYER
10
-7546.279842991073
20
-1142.796569092817
30
-326.4033234782211
 70
     32
  0
VERTEX
  8
MY3DLAYER
10
-7546.005116829186
20
-1142.133321466849
30
-326.4033234782211
 70
     32
  0
VERTEX
  8
MY3DLAYER
10
-7545.568090617041
20
-1141.5637778185862
30
-326.4033234782211
 70
     32
  0
VERTEX
  8
MY3DLAYER
10
-7544.998546968779
20
-1141.1267516064422
30
-326.4033234782211
 70
     32
  0
VERTEX
  8
MY3DLAYER
10
-7544.33529934281
20
-1140.8520254445546
30
-326.4033234782211
 70
     32
  0
VERTEX
  8
MY3DLAYER
10
-7543.623546968778
20
-1140.7583214668496
30
-326.4033234782211
 70
     32
  0
VERTEX
  8
MY3DLAYER
10
-7542.911794594746
20
-1140.8520254445546
30
-326.4033234782211
 70
     32
  0
VERTEX
  8
MY3DLAYER
10
-7542.248546968779
20
-1141.1267516064422
30
-326.4033234782211
 70
     32
  0
VERTEX
  8
MY3DLAYER
10
-7541.679003320516
20
-1141.5637778185862
30
-326.4033234782211
 70
     32
  0
VERTEX
  8
MY3DLAYER
10
-7541.241977108371
20
-1142.133321466849
30
-326.4033234782211
 70
     32
  0
VERTEX
  8
MY3DLAYER
10
-7540.9672509464845
20
-1142.796569092817
30
-326.4033234782211
 70
     32
  0
VERTEX
  8
MY3DLAYER
10
-7540.873546968779
20
-1143.5083214668489
30
-326.4033234782211
 70
     32
  0
VERTEX
  8
MY3DLAYER
10
-7540.9672509464845
20
-1144.2200738408808
30
-326.4033234782211
 70
     32
  0
VERTEX
  8
MY3DLAYER
10
-7541.241977108371
20
-1144.8833214668487
30
-326.4033234782211
 70
     32
  0
VERTEX
  8
MY3DLAYER
10
-7541.679003320516
20
-1145.4528651151113
30
-326.4033234782211
 70
     32
  0
SEQEND
  0
POLYLINE
 8
Layer0
 66
     1
70
    8
 10
0.0
 20
 0.0
 30
0.0
  0
VERTEX
  8
MY3DLAYER
10
-7542.248546968778
20
-1185.8898913272553
30
-326.4033234782211
 70
     32
  0
VERTEX
  8
MY3DLAYER
10
-7542.911794594746
20
-1186.164617489143
30
-326.4033234782211
 70
     32
  0
VERTEX
  8
MY3DLAYER
10
-7543.623546968778
20
-1186.258321466848
30
-326.4033234782211
 70
     32
  0
VERTEX
  8
MY3DLAYER
10
-7544.33529934281
20
-1186.164617489143
30
-326.4033234782211
 70
     32
  0
VERTEX
  8
MY3DLAYER
10
-7544.998546968777
20
-1185.8898913272553
30
-326.4033234782211
 70
     32
  0
VERTEX
  8
MY3DLAYER
10
-7545.568090617041
20
-1185.452865115111
30
-326.4033234782211
 70
     32
  0
VERTEX
  8
MY3DLAYER
10
-7546.005116829186
20
-1184.8833214668482
30
-326.4033234782211
 70
     32
  0
VERTEX
  8
MY3DLAYER
10
-7546.279842991073
20
-1184.2200738408803
30
-326.4033234782211
 70
     32
  0
VERTEX
  8
MY3DLAYER
10
-7546.373546968778
20
-1183.5083214668487
30
-326.4033234782211
 70
     32
  0
VERTEX
  8
MY3DLAYER
10
-7546.279842991073
20
-1182.7965690928168
30
-326.4033234782211
 70
     32
  0
VERTEX
  8
MY3DLAYER
10
-7546.005116829186
20
-1182.1333214668489
30
-326.4033234782211
 70
     32
  0
VERTEX
  8
MY3DLAYER
10
-7545.568090617041
20
-1181.563777818586
30
-326.4033234782211
 70
     32
  0
VERTEX
  8
MY3DLAYER
10
-7544.998546968779
20
-1181.126751606442
30
-326.4033234782211
 70
     32
  0
VERTEX
  8
MY3DLAYER
10
-7544.33529934281
20
-1180.8520254445543
30
-326.4033234782211
 70
     32
  0
VERTEX
  8
MY3DLAYER
10
-7543.623546968778
20
-1180.7583214668493
30
-326.4033234782211
 70
     32
  0
VERTEX
  8
MY3DLAYER
10
-7542.911794594746
20
-1180.8520254445543
30
-326.4033234782211
 70
     32
  0
VERTEX
  8
MY3DLAYER
10
-7542.248546968779
20
-1181.126751606442
30
-326.4033234782211
 70
     32
  0
VERTEX
  8
MY3DLAYER
10
-7541.679003320516
20
-1181.563777818586
30
-326.4033234782211
 70
     32
  0
VERTEX
  8
MY3DLAYER
10
-7541.241977108371
20
-1182.1333214668489
30
-326.4033234782211
 70
     32
  0
VERTEX
  8
MY3DLAYER
10
-7540.9672509464845
20
-1182.7965690928168
30
-326.4033234782211
 70
     32
  0
VERTEX
  8
MY3DLAYER
10
-7540.873546968779
20
-1183.5083214668487
30
-326.4033234782211
 70
     32
  0
VERTEX
  8
MY3DLAYER
10
-7540.9672509464845
20
-1184.2200738408803
30
-326.4033234782211
 70
     32
  0
VERTEX
  8
MY3DLAYER
10
-7541.241977108371
20
-1184.8833214668482
30
-326.4033234782211
 70
     32
  0
VERTEX
  8
MY3DLAYER
10
-7541.679003320516
20
-1185.452865115111
30
-326.4033234782211
 70
     32
  0
VERTEX
  8
MY3DLAYER
10
-7542.248546968778
20
-1185.8898913272553
30
-326.4033234782211
 70
     32
  0
SEQEND
  0
POLYLINE
 8
Layer0
 66
     1
70
    8
 10
0.0
 20
 0.0
 30
0.0
  0
VERTEX
  8
MY3DLAYER
10
-7300.967250946485
20
-1142.796569092817
30
-326.4033234782211
 70
     32
  0
VERTEX
  8
MY3DLAYER
10
-7300.87354696878
20
-1143.5083214668489
30
-326.4033234782211
 70
     32
  0
VERTEX
  8
MY3DLAYER
10
-7300.967250946485
20
-1144.2200738408808
30
-326.4033234782211
 70
     32
  0
VERTEX
  8
MY3DLAYER
10
-7301.241977108372
20
-1144.8833214668487
30
-326.4033234782211
 70
     32
  0
VERTEX
  8
MY3DLAYER
10
-7301.679003320517
20
-1145.4528651151113
30
-326.4033234782211
 70
     32
  0
VERTEX
  8
MY3DLAYER
10
-7302.248546968779
20
-1145.8898913272556
30
-326.4033234782211
 70
     32
  0
VERTEX
  8
MY3DLAYER
10
-7302.911794594748
20
-1146.1646174891432
30
-326.4033234782211
 70
     32
  0
VERTEX
  8
MY3DLAYER
10
-7303.623546968779
20
-1146.2583214668482
30
-326.4033234782211
 70
     32
  0
VERTEX
  8
MY3DLAYER
10
-7304.335299342811
20
-1146.1646174891432
30
-326.4033234782211
 70
     32
  0
VERTEX
  8
MY3DLAYER
10
-7304.998546968778
20
-1145.8898913272556
30
-326.4033234782211
 70
     32
  0
VERTEX
  8
MY3DLAYER
10
-7305.568090617042
20
-1145.4528651151113
30
-326.4033234782211
 70
     32
  0
VERTEX
  8
MY3DLAYER
10
-7306.005116829187
20
-1144.8833214668487
30
-326.4033234782211
 70
     32
  0
VERTEX
  8
MY3DLAYER
10
-7306.279842991074
20
-1144.2200738408808
30
-326.4033234782211
 70
     32
  0
VERTEX
  8
MY3DLAYER
10
-7306.373546968779
20
-1143.5083214668489
30
-326.4033234782211
 70
     32
  0
VERTEX
  8
MY3DLAYER
10
-7306.279842991074
20
-1142.796569092817
30
-326.4033234782211
 70
     32
  0
VERTEX
  8
MY3DLAYER
10
-7306.005116829187
20
-1142.133321466849
30
-326.4033234782211
 70
     32
  0
VERTEX
  8
MY3DLAYER
10
-7305.568090617042
20
-1141.5637778185862
30
-326.4033234782211
 70
     32
  0
VERTEX
  8
MY3DLAYER
10
-7304.99854696878
20
-1141.1267516064422
30
-326.4033234782211
 70
     32
  0
VERTEX
  8
MY3DLAYER
10
-7304.335299342811
20
-1140.8520254445546
30
-326.4033234782211
 70
     32
  0
VERTEX
  8
MY3DLAYER
10
-7303.623546968779
20
-1140.7583214668496
30
-326.4033234782211
 70
     32
  0
VERTEX
  8
MY3DLAYER
10
-7302.911794594748
20
-1140.8520254445546
30
-326.4033234782211
 70
     32
  0
VERTEX
  8
MY3DLAYER
10
-7302.248546968781
20
-1141.1267516064422
30
-326.4033234782211
 70
     32
  0
VERTEX
  8
MY3DLAYER
10
-7301.679003320517
20
-1141.5637778185862
30
-326.4033234782211
 70
     32
  0
VERTEX
  8
MY3DLAYER
10
-7301.241977108372
20
-1142.133321466849
30
-326.4033234782211
 70
     32
  0
VERTEX
  8
MY3DLAYER
10
-7300.967250946485
20
-1142.796569092817
30
-326.4033234782211
 70
     32
  0
SEQEND
  0
POLYLINE
 8
Layer0
 66
     1
70
    8
 10
0.0
 20
 0.0
 30
0.0
  0
VERTEX
  8
MY3DLAYER
10
-7300.967250946485
20
-1182.7965690928168
30
-326.4033234782211
 70
     32
  0
VERTEX
  8
MY3DLAYER
10
-7300.87354696878
20
-1183.5083214668487
30
-326.4033234782211
 70
     32
  0
VERTEX
  8
MY3DLAYER
10
-7300.967250946485
20
-1184.2200738408803
30
-326.4033234782211
 70
     32
  0
VERTEX
  8
MY3DLAYER
10
-7301.241977108372
20
-1184.8833214668482
30
-326.4033234782211
 70
     32
  0
VERTEX
  8
MY3DLAYER
10
-7301.679003320517
20
-1185.452865115111
30
-326.4033234782211
 70
     32
  0
VERTEX
  8
MY3DLAYER
10
-7302.248546968779
20
-1185.8898913272553
30
-326.4033234782211
 70
     32
  0
VERTEX
  8
MY3DLAYER
10
-7302.911794594748
20
-1186.164617489143
30
-326.4033234782211
 70
     32
  0
VERTEX
  8
MY3DLAYER
10
-7303.623546968779
20
-1186.258321466848
30
-326.4033234782211
 70
     32
  0
VERTEX
  8
MY3DLAYER
10
-7304.335299342811
20
-1186.164617489143
30
-326.4033234782211
 70
     32
  0
VERTEX
  8
MY3DLAYER
10
-7304.998546968778
20
-1185.8898913272553
30
-326.4033234782211
 70
     32
  0
VERTEX
  8
MY3DLAYER
10
-7305.568090617042
20
-1185.452865115111
30
-326.4033234782211
 70
     32
  0
VERTEX
  8
MY3DLAYER
10
-7306.005116829187
20
-1184.8833214668482
30
-326.4033234782211
 70
     32
  0
VERTEX
  8
MY3DLAYER
10
-7306.279842991074
20
-1184.2200738408803
30
-326.4033234782211
 70
     32
  0
VERTEX
  8
MY3DLAYER
10
-7306.373546968779
20
-1183.5083214668487
30
-326.4033234782211
 70
     32
  0
VERTEX
  8
MY3DLAYER
10
-7306.279842991074
20
-1182.7965690928168
30
-326.4033234782211
 70
     32
  0
VERTEX
  8
MY3DLAYER
10
-7306.005116829187
20
-1182.1333214668489
30
-326.4033234782211
 70
     32
  0
VERTEX
  8
MY3DLAYER
10
-7305.568090617042
20
-1181.563777818586
30
-326.4033234782211
 70
     32
  0
VERTEX
  8
MY3DLAYER
10
-7304.99854696878
20
-1181.126751606442
30
-326.4033234782211
 70
     32
  0
VERTEX
  8
MY3DLAYER
10
-7304.335299342811
20
-1180.8520254445543
30
-326.4033234782211
 70
     32
  0
VERTEX
  8
MY3DLAYER
10
-7303.623546968779
20
-1180.7583214668493
30
-326.4033234782211
 70
     32
  0
VERTEX
  8
MY3DLAYER
10
-7302.911794594748
20
-1180.8520254445543
30
-326.4033234782211
 70
     32
  0
VERTEX
  8
MY3DLAYER
10
-7302.248546968781
20
-1181.126751606442
30
-326.4033234782211
 70
     32
  0
VERTEX
  8
MY3DLAYER
10
-7301.679003320517
20
-1181.563777818586
30
-326.4033234782211
 70
     32
  0
VERTEX
  8
MY3DLAYER
10
-7301.241977108372
20
-1182.1333214668489
30
-326.4033234782211
 70
     32
  0
VERTEX
  8
MY3DLAYER
10
-7300.967250946485
20
-1182.7965690928168
30
-326.4033234782211
 70
     32
  0
SEQEND
  0
POLYLINE
 8
Layer0
 66
     1
70
    8
 10
0.0
 20
 0.0
 30
0.0
  0
VERTEX
  8
MY3DLAYER
10
-7351.035689507275
20
-1154.699227639052
30
-326.4033234782211
 70
     32
  0
VERTEX
  8
MY3DLAYER
10
-7348.980204054071
20
-1156.7044532098341
30
-326.4033234782211
 70
     32
  0
VERTEX
  8
MY3DLAYER
10
-7347.513748136706
20
-1159.1733511584077
30
-326.4033234782211
 70
     32
  0
VERTEX
  8
MY3DLAYER
10
-7346.736258302514
20
-1161.9376701696244
30
-326.4033234782211
 70
     32
  0
VERTEX
  8
MY3DLAYER
10
-7346.700719198832
20
-1164.8090264711232
30
-326.4033234782211
 70
     32
  0
VERTEX
  8
MY3DLAYER
10
-7347.409552756847
20
-1167.591741876097
30
-326.4033234782211
 70
     32
  0
VERTEX
  8
MY3DLAYER
10
-7348.814453140981
20
-1170.096178928352
30
-326.4033234782211
 70
     32
  0
VERTEX
  8
MY3DLAYER
10
-7350.819678711763
20
-1172.1516643815548
30
-326.4033234782211
 70
     32
  0
VERTEX
  8
MY3DLAYER
10
-7353.288576660336
20
-1173.6181202989198
30
-326.4033234782211
 70
     32
  0
VERTEX
  8
MY3DLAYER
10
-7356.052895671553
20
-1174.3956101331119
30
-326.4033234782211
 70
     32
  0
VERTEX
  8
MY3DLAYER
10
-7358.9242519730515
20
-1174.4311492367933
30
-326.4033234782211
 70
     32
  0
VERTEX
  8
MY3DLAYER
10
-7361.706967378025
20
-1173.7223156787793
30
-326.4033234782211
 70
     32
  0
VERTEX
  8
MY3DLAYER
10
-7364.21140443028
20
-1172.3174152946456
30
-326.4033234782211
 70
     32
  0
VERTEX
  8
MY3DLAYER
10
-7366.266889883484
20
-1170.3121897238636
30
-326.4033234782211
 70
     32
  0
VERTEX
  8
MY3DLAYER
10
-7367.733345800848
20
-1167.84329177529
30
-326.4033234782211
 70
     32
  0
VERTEX
  8
MY3DLAYER
10
-7368.51083563504
20
-1165.0789727640731
30
-326.4033234782211
 70
     32
  0
VERTEX
  8
MY3DLAYER
10
-7368.546374738722
20
-1162.2076164625744
30
-326.4033234782211
 70
     32
  0
VERTEX
  8
MY3DLAYER
10
-7367.837541180707
20
-1159.4249010576004
30
-326.4033234782211
 70
     32
  0
VERTEX
  8
MY3DLAYER
10
-7366.432640796575
20
-1156.9204640053456
30
-326.4033234782211
 70
     32
  0
VERTEX
  8
MY3DLAYER
10
-7364.427415225792
20
-1154.8649785521427
30
-326.4033234782211
 70
     32
  0
VERTEX
  8
MY3DLAYER
10
-7361.958517277219
20
-1153.3985226347777
30
-326.4033234782211
 70
     32
  0
VERTEX
  8
MY3DLAYER
10
-7359.194198266001
20
-1152.6210328005857
30
-326.4033234782211
 70
     32
  0
VERTEX
  8
MY3DLAYER
10
-7356.322841964503
20
-1152.5854936969045
30
-326.4033234782211
 70
     32
  0
VERTEX
  8
MY3DLAYER
10
-7353.540126559529
20
-1153.2943272549185
30
-326.4033234782211
 70
     32
  0
VERTEX
  8
MY3DLAYER
10
-7351.035689507275
20
-1154.699227639052
30
-326.4033234782211
 70
     32
  0
SEQEND
  0
POLYLINE
 8
Layer0
 66
     1
70
    8
 10
0.0
 20
 0.0
 30
0.0
  0
VERTEX
  8
MY3DLAYER
10
-7403.7308959786205
20
-1179.3731212067535
30
-326.4033234782211
 70
     32
  0
VERTEX
  8
MY3DLAYER
10
-7403.106459309968
20
-1178.9004543328983
30
-326.4033234782211
 70
     32
  0
VERTEX
  8
MY3DLAYER
10
-7402.380964615894
20
-1178.6055092945176
30
-326.4033234782211
 70
     32
  0
VERTEX
  8
MY3DLAYER
10
-7401.603853160859
20
-1178.5083861085573
30
-326.4033234782211
 70
     32
  0
VERTEX
  8
MY3DLAYER
10
-7400.82808380629
20
-1178.6157035596368
30
-326.4033234782211
 70
     32
  0
VERTEX
  8
MY3DLAYER
10
-7400.106523951677
20
-1178.9201481408159
30
-326.4033234782211
 70
     32
  0
VERTEX
  8
MY3DLAYER
10
-7399.488346708682
20
-1179.4009724570053
30
-326.4033234782211
 70
     32
  0
VERTEX
  8
MY3DLAYER
10
-7399.015679834826
20
-1180.0254091256568
30
-326.4033234782211
 70
     32
  0
VERTEX
  8
MY3DLAYER
10
-7398.720734796447
20
-1180.750903819732
30
-326.4033234782211
 70
     32
  0
VERTEX
  8
MY3DLAYER
10
-7398.623611610486
20
-1181.5280152747662
30
-326.4033234782211
 70
     32
  0
VERTEX
  8
MY3DLAYER
10
-7398.730929061566
20
-1182.3037846293366
30
-326.4033234782211
 70
     32
  0
VERTEX
  8
MY3DLAYER
10
-7399.035373642744
20
-1183.0253444839484
30
-326.4033234782211
 70
     32
  0
VERTEX
  8
MY3DLAYER
10
-7399.516197958934
20
-1183.6435217269438
30
-326.4033234782211
 70
     32
  0
VERTEX
  8
MY3DLAYER
10
-7400.140634627586
20
-1184.1161886007992
30
-326.4033234782211
 70
     32
  0
VERTEX
  8
MY3DLAYER
10
-7400.866129321661
20
-1184.4111336391798
30
-326.4033234782211
 70
     32
  0
VERTEX
  8
MY3DLAYER
10
-7401.643240776695
20
-1184.5082568251403
30
-326.4033234782211
 70
     32
  0
VERTEX
  8
MY3DLAYER
10
-7402.419010131264
20
-1184.4009393740605
30
-326.4033234782211
 70
     32
  0
VERTEX
  8
MY3DLAYER
10
-7403.140569985877
20
-1184.0964947928817
30
-326.4033234782211
 70
     32
  0
VERTEX
  8
MY3DLAYER
10
-7403.758747228872
20
-1183.615670476692
30
-326.4033234782211
 70
     32
  0
VERTEX
  8
MY3DLAYER
10
-7404.231414102728
20
-1182.9912338080408
30
-326.4033234782211
 70
     32
  0
VERTEX
  8
MY3DLAYER
10
-7404.526359141108
20
-1182.2657391139655
30
-326.4033234782211
 70
     32
  0
VERTEX
  8
MY3DLAYER
10
-7404.62348232707
20
-1181.4886276589311
30
-326.4033234782211
 70
     32
  0
VERTEX
  8
MY3DLAYER
10
-7404.5161648759895
20
-1180.712858304361
30
-326.4033234782211
 70
     32
  0
VERTEX
  8
MY3DLAYER
10
-7404.21172029481
20
-1179.991298449749
30
-326.4033234782211
 70
     32
  0
VERTEX
  8
MY3DLAYER
10
-7403.7308959786205
20
-1179.3731212067535
30
-326.4033234782211
 70
     32
  0
SEQEND
  0
POLYLINE
 8
Layer0
 66
     1
70
    8
 10
0.0
 20
 0.0
 30
0.0
  0
VERTEX
  8
MY3DLAYER
10
-7542.911794594746
20
-1186.164617489143
30
-326.4033234782211
 70
     32
  0
VERTEX
  8
MY3DLAYER
10
-7542.248546968778
20
-1185.8898913272553
30
-326.4033234782211
 70
     32
  0
VERTEX
  8
MY3DLAYER
10
-7541.679003320516
20
-1185.452865115111
30
-326.4033234782211
 70
     32
  0
VERTEX
  8
MY3DLAYER
10
-7541.241977108371
20
-1184.8833214668482
30
-326.4033234782211
 70
     32
  0
VERTEX
  8
MY3DLAYER
10
-7540.9672509464845
20
-1184.2200738408803
30
-326.4033234782211
 70
     32
  0
VERTEX
  8
MY3DLAYER
10
-7540.873546968779
20
-1183.5083214668487
30
-326.4033234782211
 70
     32
  0
VERTEX
  8
MY3DLAYER
10
-7540.9672509464845
20
-1182.7965690928168
30
-326.4033234782211
 70
     32
  0
VERTEX
  8
MY3DLAYER
10
-7541.241977108371
20
-1182.1333214668489
30
-326.4033234782211
 70
     32
  0
VERTEX
  8
MY3DLAYER
10
-7541.679003320516
20
-1181.563777818586
30
-326.4033234782211
 70
     32
  0
VERTEX
  8
MY3DLAYER
10
-7542.248546968779
20
-1181.126751606442
30
-326.4033234782211
 70
     32
  0
VERTEX
  8
MY3DLAYER
10
-7542.911794594746
20
-1180.8520254445543
30
-326.4033234782211
 70
     32
  0
VERTEX
  8
MY3DLAYER
10
-7543.623546968778
20
-1180.7583214668493
30
-326.4033234782211
 70
     32
  0
VERTEX
  8
MY3DLAYER
10
-7544.33529934281
20
-1180.8520254445543
30
-326.4033234782211
 70
     32
  0
VERTEX
  8
MY3DLAYER
10
-7544.998546968779
20
-1181.126751606442
30
-326.4033234782211
 70
     32
  0
VERTEX
  8
MY3DLAYER
10
-7545.568090617041
20
-1181.563777818586
30
-326.4033234782211
 70
     32
  0
VERTEX
  8
MY3DLAYER
10
-7546.005116829186
20
-1182.1333214668489
30
-326.4033234782211
 70
     32
  0
VERTEX
  8
MY3DLAYER
10
-7546.279842991073
20
-1182.7965690928168
30
-326.4033234782211
 70
     32
  0
VERTEX
  8
MY3DLAYER
10
-7546.373546968778
20
-1183.5083214668487
30
-326.4033234782211
 70
     32
  0
VERTEX
  8
MY3DLAYER
10
-7546.279842991073
20
-1184.2200738408803
30
-326.4033234782211
 70
     32
  0
VERTEX
  8
MY3DLAYER
10
-7546.005116829186
20
-1184.8833214668482
30
-326.4033234782211
 70
     32
  0
VERTEX
  8
MY3DLAYER
10
-7545.568090617041
20
-1185.452865115111
30
-326.4033234782211
 70
     32
  0
VERTEX
  8
MY3DLAYER
10
-7544.998546968777
20
-1185.8898913272553
30
-326.4033234782211
 70
     32
  0
VERTEX
  8
MY3DLAYER
10
-7544.33529934281
20
-1186.164617489143
30
-326.4033234782211
 70
     32
  0
VERTEX
  8
MY3DLAYER
10
-7543.623546968778
20
-1186.258321466848
30
-326.4033234782211
 70
     32
  0
VERTEX
  8
MY3DLAYER
10
-7542.911794594746
20
-1186.164617489143
30
-326.4033234782211
 70
     32
  0
SEQEND
  0
POLYLINE
 8
Layer0
 66
     1
70
    8
 10
0.0
 20
 0.0
 30
0.0
  0
VERTEX
  8
MY3DLAYER
10
-7466.023546968779
20
-1086.508321466849
30
-326.4033234782211
 70
     32
  0
VERTEX
  8
MY3DLAYER
10
-7466.023546968779
20
-1101.5083214668489
30
-326.4033234782211
 70
     32
  0
VERTEX
  8
MY3DLAYER
10
-7454.023546968779
20
-1101.5083214668489
30
-326.4033234782211
 70
     32
  0
VERTEX
  8
MY3DLAYER
10
-7454.023546968779
20
-1086.508321466849
30
-326.4033234782211
 70
     32
  0
VERTEX
  8
MY3DLAYER
10
-7466.023546968779
20
-1086.508321466849
30
-326.4033234782211
 70
     32
  0
SEQEND
  0
POLYLINE
 8
Layer0
 66
     1
70
    8
 10
0.0
 20
 0.0
 30
0.0
  0
VERTEX
  8
MY3DLAYER
10
-7302.911794594748
20
-1186.164617489143
30
-326.4033234782211
 70
     32
  0
VERTEX
  8
MY3DLAYER
10
-7302.248546968779
20
-1185.8898913272553
30
-326.4033234782211
 70
     32
  0
VERTEX
  8
MY3DLAYER
10
-7301.679003320517
20
-1185.452865115111
30
-326.4033234782211
 70
     32
  0
VERTEX
  8
MY3DLAYER
10
-7301.241977108372
20
-1184.8833214668482
30
-326.4033234782211
 70
     32
  0
VERTEX
  8
MY3DLAYER
10
-7300.967250946485
20
-1184.2200738408803
30
-326.4033234782211
 70
     32
  0
VERTEX
  8
MY3DLAYER
10
-7300.87354696878
20
-1183.5083214668487
30
-326.4033234782211
 70
     32
  0
VERTEX
  8
MY3DLAYER
10
-7300.967250946485
20
-1182.7965690928168
30
-326.4033234782211
 70
     32
  0
VERTEX
  8
MY3DLAYER
10
-7301.241977108372
20
-1182.1333214668489
30
-326.4033234782211
 70
     32
  0
VERTEX
  8
MY3DLAYER
10
-7301.679003320517
20
-1181.563777818586
30
-326.4033234782211
 70
     32
  0
VERTEX
  8
MY3DLAYER
10
-7302.248546968781
20
-1181.126751606442
30
-326.4033234782211
 70
     32
  0
VERTEX
  8
MY3DLAYER
10
-7302.911794594748
20
-1180.8520254445543
30
-326.4033234782211
 70
     32
  0
VERTEX
  8
MY3DLAYER
10
-7303.623546968779
20
-1180.7583214668493
30
-326.4033234782211
 70
     32
  0
VERTEX
  8
MY3DLAYER
10
-7304.335299342811
20
-1180.8520254445543
30
-326.4033234782211
 70
     32
  0
VERTEX
  8
MY3DLAYER
10
-7304.99854696878
20
-1181.126751606442
30
-326.4033234782211
 70
     32
  0
VERTEX
  8
MY3DLAYER
10
-7305.568090617042
20
-1181.563777818586
30
-326.4033234782211
 70
     32
  0
VERTEX
  8
MY3DLAYER
10
-7306.005116829187
20
-1182.1333214668489
30
-326.4033234782211
 70
     32
  0
VERTEX
  8
MY3DLAYER
10
-7306.279842991074
20
-1182.7965690928168
30
-326.4033234782211
 70
     32
  0
VERTEX
  8
MY3DLAYER
10
-7306.373546968779
20
-1183.5083214668487
30
-326.4033234782211
 70
     32
  0
VERTEX
  8
MY3DLAYER
10
-7306.279842991074
20
-1184.2200738408803
30
-326.4033234782211
 70
     32
  0
VERTEX
  8
MY3DLAYER
10
-7306.005116829187
20
-1184.8833214668482
30
-326.4033234782211
 70
     32
  0
VERTEX
  8
MY3DLAYER
10
-7305.568090617042
20
-1185.452865115111
30
-326.4033234782211
 70
     32
  0
VERTEX
  8
MY3DLAYER
10
-7304.998546968778
20
-1185.8898913272553
30
-326.4033234782211
 70
     32
  0
VERTEX
  8
MY3DLAYER
10
-7304.335299342811
20
-1186.164617489143
30
-326.4033234782211
 70
     32
  0
VERTEX
  8
MY3DLAYER
10
-7303.623546968779
20
-1186.258321466848
30
-326.4033234782211
 70
     32
  0
VERTEX
  8
MY3DLAYER
10
-7302.911794594748
20
-1186.164617489143
30
-326.4033234782211
 70
     32
  0
SEQEND
  0
POLYLINE
 8
Layer0
 66
     1
70
    8
 10
0.0
 20
 0.0
 30
0.0
  0
VERTEX
  8
MY3DLAYER
10
-7302.248546968779
20
-1145.8898913272556
30
-326.4033234782211
 70
     32
  0
VERTEX
  8
MY3DLAYER
10
-7301.679003320517
20
-1145.4528651151113
30
-326.4033234782211
 70
     32
  0
VERTEX
  8
MY3DLAYER
10
-7301.241977108372
20
-1144.8833214668487
30
-326.4033234782211
 70
     32
  0
VERTEX
  8
MY3DLAYER
10
-7300.967250946485
20
-1144.2200738408808
30
-326.4033234782211
 70
     32
  0
VERTEX
  8
MY3DLAYER
10
-7300.87354696878
20
-1143.5083214668489
30
-326.4033234782211
 70
     32
  0
VERTEX
  8
MY3DLAYER
10
-7300.967250946485
20
-1142.796569092817
30
-326.4033234782211
 70
     32
  0
VERTEX
  8
MY3DLAYER
10
-7301.241977108372
20
-1142.133321466849
30
-326.4033234782211
 70
     32
  0
VERTEX
  8
MY3DLAYER
10
-7301.679003320517
20
-1141.5637778185862
30
-326.4033234782211
 70
     32
  0
VERTEX
  8
MY3DLAYER
10
-7302.248546968781
20
-1141.1267516064422
30
-326.4033234782211
 70
     32
  0
VERTEX
  8
MY3DLAYER
10
-7302.911794594748
20
-1140.8520254445546
30
-326.4033234782211
 70
     32
  0
VERTEX
  8
MY3DLAYER
10
-7303.623546968779
20
-1140.7583214668496
30
-326.4033234782211
 70
     32
  0
VERTEX
  8
MY3DLAYER
10
-7304.335299342811
20
-1140.8520254445546
30
-326.4033234782211
 70
     32
  0
VERTEX
  8
MY3DLAYER
10
-7304.99854696878
20
-1141.1267516064422
30
-326.4033234782211
 70
     32
  0
VERTEX
  8
MY3DLAYER
10
-7305.568090617042
20
-1141.5637778185862
30
-326.4033234782211
 70
     32
  0
VERTEX
  8
MY3DLAYER
10
-7306.005116829187
20
-1142.133321466849
30
-326.4033234782211
 70
     32
  0
VERTEX
  8
MY3DLAYER
10
-7306.279842991074
20
-1142.796569092817
30
-326.4033234782211
 70
     32
  0
VERTEX
  8
MY3DLAYER
10
-7306.373546968779
20
-1143.5083214668489
30
-326.4033234782211
 70
     32
  0
VERTEX
  8
MY3DLAYER
10
-7306.279842991074
20
-1144.2200738408808
30
-326.4033234782211
 70
     32
  0
VERTEX
  8
MY3DLAYER
10
-7306.005116829187
20
-1144.8833214668487
30
-326.4033234782211
 70
     32
  0
VERTEX
  8
MY3DLAYER
10
-7305.568090617042
20
-1145.4528651151113
30
-326.4033234782211
 70
     32
  0
VERTEX
  8
MY3DLAYER
10
-7304.998546968778
20
-1145.8898913272556
30
-326.4033234782211
 70
     32
  0
VERTEX
  8
MY3DLAYER
10
-7304.335299342811
20
-1146.1646174891432
30
-326.4033234782211
 70
     32
  0
VERTEX
  8
MY3DLAYER
10
-7303.623546968779
20
-1146.2583214668482
30
-326.4033234782211
 70
     32
  0
VERTEX
  8
MY3DLAYER
10
-7302.911794594748
20
-1146.1646174891432
30
-326.4033234782211
 70
     32
  0
VERTEX
  8
MY3DLAYER
10
-7302.248546968779
20
-1145.8898913272556
30
-326.4033234782211
 70
     32
  0
SEQEND
  0
LINE
 8
X-CARVE
10
-7517.680495788823
20
-1155.0917833453054
30
-326.4033234782211
11
-7520.769615780728
21
-1155.0917833453054
31
-326.4033234782211
  0
LINE
 8
X-CARVE
10
-7520.769615780728
20
-1155.0917833453054
30
-326.4033234782211
11
-7525.7094860761545
21
-1146.981142309289
31
-326.4033234782211
  0
LINE
 8
X-CARVE
10
-7525.7094860761545
20
-1146.981142309289
30
-326.4033234782211
11
-7530.7310071202655
21
-1155.0917833453054
31
-326.4033234782211
  0
LINE
 8
X-CARVE
10
-7530.7310071202655
20
-1155.0917833453054
30
-326.4033234782211
11
-7533.643217156687
21
-1155.0917833453054
31
-326.4033234782211
  0
LINE
 8
X-CARVE
10
-7533.643217156687
20
-1155.0917833453054
30
-326.4033234782211
11
-7527.206416468708
21
-1144.953482050285
31
-326.4033234782211
  0
LINE
 8
X-CARVE
10
-7527.206416468708
20
-1144.953482050285
30
-326.4033234782211
11
-7533.452698743088
21
-1134.8287892133785
31
-326.4033234782211
  0
LINE
 8
X-CARVE
10
-7533.452698743088
20
-1134.8287892133785
30
-326.4033234782211
11
-7530.3771872092975
21
-1134.8287892133785
31
-326.4033234782211
  0
LINE
 8
X-CARVE
10
-7530.3771872092975
20
-1134.8287892133785
30
-326.4033234782211
11
-7525.5325761206705
21
-1142.7897372101395
31
-326.4033234782211
  0
LINE
 8
X-CARVE
10
-7525.5325761206705
20
-1142.7897372101395
30
-326.4033234782211
11
-7520.619922741473
21
-1134.8287892133785
31
-326.4033234782211
  0
LINE
 8
X-CARVE
10
-7520.619922741473
20
-1134.8287892133785
30
-326.4033234782211
11
-7517.694104246936
21
-1134.8287892133785
31
-326.4033234782211
  0
LINE
 8
X-CARVE
10
-7517.694104246936
20
-1134.8287892133785
30
-326.4033234782211
11
-7524.035645728117
21
-1144.8173974691438
31
-326.4033234782211
  0
LINE
 8
X-CARVE
10
-7524.035645728117
20
-1144.8173974691438
30
-326.4033234782211
11
-7517.680495788823
21
-1155.0917833453054
31
-326.4033234782211
  0
LINE
 8
X-CARVE
10
-7508.6716965172745
20
-1147.4574383432832
30
-326.4033234782211
11
-7516.346866893638
21
-1147.4574383432832
31
-326.4033234782211
  0
LINE
 8
X-CARVE
10
-7516.346866893638
20
-1147.4574383432832
30
-326.4033234782211
11
-7516.346866893638
21
-1144.9943074246273
31
-326.4033234782211
  0
LINE
 8
X-CARVE
10
-7516.346866893638
20
-1144.9943074246273
30
-326.4033234782211
11
-7508.6716965172745
21
-1144.9943074246273
31
-326.4033234782211
  0
LINE
 8
X-CARVE
10
-7508.6716965172745
20
-1144.9943074246273
30
-326.4033234782211
11
-7508.6716965172745
21
-1147.4574383432832
31
-326.4033234782211
  0
LINE
 8
X-CARVE
10
-7497.471935489353
20
-1155.4592117143866
30
-326.4033234782211
11
-7499.378820682593
21
-1155.2925081024887
31
-326.4033234782211
  0
LINE
 8
X-CARVE
10
-7499.378820682593
20
-1155.2925081024887
30
-326.4033234782211
11
-7501.125806492994
21
-1154.7923972667948
31
-326.4033234782211
  0
LINE
 8
X-CARVE
10
-7501.125806492994
20
-1154.7923972667948
30
-326.4033234782211
11
-7502.678871775268
21
-1153.9622813218332
31
-326.4033234782211
  0
LINE
 8
X-CARVE
10
-7502.678871775268
20
-1153.9622813218332
30
-326.4033234782211
11
-7504.00399538413
21
-1152.805562382133
31
-326.4033234782211
  0
LINE
 8
X-CARVE
10
-7504.00399538413
20
-1152.805562382133
30
-326.4033234782211
11
-7505.079063575146
21
-1151.3222404476937
31
-326.4033234782211
  0
LINE
 8
X-CARVE
10
-7505.079063575146
20
-1151.3222404476937
30
-326.4033234782211
11
-7505.881962603879
21
-1149.5123155185156
31
-326.4033234782211
  0
LINE
 8
X-CARVE
10
-7505.881962603879
20
-1149.5123155185156
30
-326.4033234782211
11
-7506.382073439573
21
-1147.3927981672412
31
-326.4033234782211
  0
LINE
 8
X-CARVE
10
-7506.382073439573
20
-1147.3927981672412
30
-326.4033234782211
11
-7506.548777051472
21
-1144.980698966513
31
-326.4033234782211
  0
LINE
 8
X-CARVE
10
-7506.548777051472
20
-1144.980698966513
30
-326.4033234782211
11
-7506.387176611366
21
-1142.599218796542
31
-326.4033234782211
  0
LINE
 8
X-CARVE
10
-7506.387176611366
20
-1142.599218796542
30
-326.4033234782211
11
-7505.90237529105
21
-1140.5443416213095
31
-326.4033234782211
  0
LINE
 8
X-CARVE
10
-7505.90237529105
20
-1140.5443416213095
30
-326.4033234782211
11
-7505.107981548638
21
-1138.7752420664738
31
-326.4033234782211
  0
LINE
 8
X-CARVE
10
-7505.107981548638
20
-1138.7752420664738
30
-326.4033234782211
11
-7504.017603842245
21
-1137.2510947576923
31
-326.4033234782211
  0
LINE
 8
X-CARVE
10
-7504.017603842245
20
-1137.2510947576923
30
-326.4033234782211
11
-7502.694181290646
21
-1136.0518493863851
31
-326.4033234782211
  0
LINE
 8
X-CARVE
10
-7502.694181290646
20
-1136.0518493863851
30
-326.4033234782211
11
-7501.146219180165
21
-1135.1758048952888
31
-326.4033234782211
  0
LINE
 8
X-CARVE
10
-7501.146219180165
20
-1135.1758048952888
30
-326.4033234782211
11
-7499.387325968915
21
-1134.639971857045
31
-326.4033234782211
  0
LINE
 8
X-CARVE
10
-7499.387325968915
20
-1134.639971857045
30
-326.4033234782211
11
-7497.43111011501
21
-1134.4613608442974
31
-326.4033234782211
  0
LINE
 8
X-CARVE
10
-7497.43111011501
20
-1134.4613608442974
30
-326.4033234782211
11
-7495.519121749976
21
-1134.6110538835526
31
-326.4033234782211
  0
LINE
 8
X-CARVE
10
-7495.519121749976
20
-1134.6110538835526
30
-326.4033234782211
11
-7493.865694089111
21
-1134.992090710748
31
-326.4033234782211
  0
LINE
 8
X-CARVE
10
-7493.865694089111
20
-1134.992090710748
30
-326.4033234782211
11
-7492.52526096487
21
-1135.5024078900276
31
-326.4033234782211
  0
LINE
 8
X-CARVE
10
-7492.52526096487
20
-1135.5024078900276
30
-326.4033234782211
11
-7491.171219382514
21
-1136.1760265666767
31
-326.4033234782211
  0
LINE
 8
X-CARVE
10
-7491.171219382514
20
-1136.1760265666767
30
-326.4033234782211
11
-7491.171219382514
21
-1139.4284480559515
31
-326.4033234782211
  0
LINE
 8
X-CARVE
10
-7491.171219382514
20
-1139.4284480559515
30
-326.4033234782211
11
-7491.388954712341
21
-1139.4284480559515
31
-326.4033234782211
  0
LINE
 8
X-CARVE
10
-7491.388954712341
20
-1139.4284480559515
30
-326.4033234782211
11
-7492.300721405986
21
-1138.6391574853326
31
-326.4033234782211
  0
LINE
 8
X-CARVE
10
-7492.300721405986
20
-1138.6391574853326
30
-326.4033234782211
11
-7493.6615672173975
21
-1137.7273907916865
31
-326.4033234782211
  0
LINE
 8
X-CARVE
10
-7493.6615672173975
20
-1137.7273907916865
30
-326.4033234782211
11
-7495.349016023549
21
-1137.0333594278661
31
-326.4033234782211
  0
LINE
 8
X-CARVE
10
-7495.349016023549
20
-1137.0333594278661
30
-326.4033234782211
11
-7497.458327031238
21
-1136.7611902655838
31
-326.4033234782211
  0
LINE
 8
X-CARVE
10
-7497.458327031238
20
-1136.7611902655838
30
-326.4033234782211
11
-7498.7171094067935
21
-1136.8938727321965
31
-326.4033234782211
  0
LINE
 8
X-CARVE
10
-7498.7171094067935
20
-1136.8938727321965
30
-326.4033234782211
11
-7499.90784949178
21
-1137.2919201320346
31
-326.4033234782211
  0
LINE
 8
X-CARVE
10
-7499.90784949178
20
-1137.2919201320346
30
-326.4033234782211
11
-7500.993124026381
21
-1137.9485282360408
31
-326.4033234782211
  0
LINE
 8
X-CARVE
10
-7500.993124026381
20
-1137.9485282360408
30
-326.4033234782211
11
-7501.935509750784
21
-1138.8568928151585
31
-326.4033234782211
  0
LINE
 8
X-CARVE
10
-7501.935509750784
20
-1138.8568928151585
30
-326.4033234782211
11
-7502.697583405175
21
-1140.0238180984445
31
-326.4033234782211
  0
LINE
 8
X-CARVE
10
-7502.697583405175
20
-1140.0238180984445
30
-326.4033234782211
11
-7503.269138645967
21
-1141.4561083149558
31
-326.4033234782211
  0
LINE
 8
X-CARVE
10
-7503.269138645967
20
-1141.4561083149558
30
-326.4033234782211
11
-7503.626360671464
21
-1143.1197423194071
31
-326.4033234782211
  0
LINE
 8
X-CARVE
10
-7503.626360671464
20
-1143.1197423194071
30
-326.4033234782211
11
-7503.745434679962
21
-1144.980698966513
31
-326.4033234782211
  0
LINE
 8
X-CARVE
10
-7503.745434679962
20
-1144.980698966513
30
-326.4033234782211
11
-7503.619556442407
21
-1146.9182031905111
31
-326.4033234782211
  0
LINE
 8
X-CARVE
10
-7503.619556442407
20
-1146.9182031905111
30
-326.4033234782211
11
-7503.241921729739
21
-1148.5665276795842
31
-326.4033234782211
  0
LINE
 8
X-CARVE
10
-7503.241921729739
20
-1148.5665276795842
30
-326.4033234782211
11
-7502.646551687247
21
-1149.9528893499603
31
-326.4033234782211
  0
LINE
 8
X-CARVE
10
-7502.646551687247
20
-1149.9528893499603
30
-326.4033234782211
11
-7501.867467460214
21
-1151.1045051178678
31
-326.4033234782211
  0
LINE
 8
X-CARVE
10
-7501.867467460214
20
-1151.1045051178678
30
-326.4033234782211
11
-7500.948896537509
21
-1151.9873538380214
31
-326.4033234782211
  0
LINE
 8
X-CARVE
10
-7500.948896537509
20
-1151.9873538380214
30
-326.4033234782211
11
-7499.880632575551
21
-1152.6218481975923
31
-326.4033234782211
  0
LINE
 8
X-CARVE
10
-7499.880632575551
20
-1152.6218481975923
30
-326.4033234782211
11
-7498.703500948681
21
-1153.004586082052
31
-326.4033234782211
  0
LINE
 8
X-CARVE
10
-7498.703500948681
20
-1153.004586082052
30
-326.4033234782211
11
-7497.458327031238
21
-1153.1321653768719
31
-326.4033234782211
  0
LINE
 8
X-CARVE
10
-7497.458327031238
20
-1153.1321653768719
30
-326.4033234782211
11
-7495.294582191093
21
-1152.8463877564752
31
-326.4033234782211
  0
LINE
 8
X-CARVE
10
-7495.294582191093
20
-1152.8463877564752
30
-326.4033234782211
11
-7493.525482636258
21
-1152.1251394764267
31
-326.4033234782211
  0
LINE
 8
X-CARVE
10
-7493.525482636258
20
-1152.1251394764267
30
-326.4033234782211
11
-7492.232679115416
21
-1151.26100238618
31
-326.4033234782211
  0
LINE
 8
X-CARVE
10
-7492.232679115416
20
-1151.26100238618
30
-326.4033234782211
11
-7491.375346254225
21
-1150.5057329608464
31
-326.4033234782211
  0
LINE
 8
X-CARVE
10
-7491.375346254225
20
-1150.5057329608464
30
-326.4033234782211
11
-7491.171219382514
21
-1150.5057329608464
31
-326.4033234782211
  0
LINE
 8
X-CARVE
10
-7491.171219382514
20
-1150.5057329608464
30
-326.4033234782211
11
-7491.171219382514
21
-1153.7173290757792
31
-326.4033234782211
  0
LINE
 8
X-CARVE
10
-7491.171219382514
20
-1153.7173290757792
30
-326.4033234782211
11
-7492.43000175807
21
-1154.3161012328003
31
-326.4033234782211
  0
LINE
 8
X-CARVE
10
-7492.43000175807
20
-1154.3161012328003
30
-326.4033234782211
11
-7493.865694089111
21
-1154.8740480154795
31
-326.4033234782211
  0
LINE
 8
X-CARVE
10
-7493.865694089111
20
-1154.8740480154795
30
-326.4033234782211
11
-7495.5055132918615
21
-1155.3095186751314
31
-326.4033234782211
  0
LINE
 8
X-CARVE
10
-7495.5055132918615
20
-1155.3095186751314
30
-326.4033234782211
11
-7497.471935489353
21
-1155.4592117143866
31
-326.4033234782211
  0
LINE
 8
X-CARVE
10
-7490.844616387774
20
-1155.0917833453054
30
-326.4033234782211
11
-7484.013170414486
21
-1134.8287892133785
31
-326.4033234782211
  0
LINE
 8
X-CARVE
10
-7484.013170414486
20
-1134.8287892133785
30
-326.4033234782211
11
-7480.692706634641
21
-1134.8287892133785
31
-326.4033234782211
  0
LINE
 8
X-CARVE
10
-7480.692706634641
20
-1134.8287892133785
30
-326.4033234782211
11
-7473.861260661352
21
-1155.0917833453054
31
-326.4033234782211
  0
LINE
 8
X-CARVE
10
-7473.861260661352
20
-1155.0917833453054
30
-326.4033234782211
11
-7476.705428407204
21
-1155.0917833453054
31
-326.4033234782211
  0
LINE
 8
X-CARVE
10
-7476.705428407204
20
-1155.0917833453054
30
-326.4033234782211
11
-7478.54257025261
21
-1149.4306647698309
31
-326.4033234782211
  0
LINE
 8
X-CARVE
10
-7478.54257025261
20
-1149.4306647698309
30
-326.4033234782211
11
-7486.2857829195445
21
-1149.4306647698309
31
-326.4033234782211
  0
LINE
 8
X-CARVE
10
-7486.2857829195445
20
-1149.4306647698309
30
-326.4033234782211
11
-7488.122924764951
21
-1155.0917833453054
31
-326.4033234782211
  0
LINE
 8
X-CARVE
10
-7488.122924764951
20
-1155.0917833453054
30
-326.4033234782211
11
-7490.844616387774
21
-1155.0917833453054
31
-326.4033234782211
  0
LINE
 8
X-CARVE
10
-7479.291035448886
20
-1147.1308353485445
30
-326.4033234782211
11
-7482.420980815134
21
-1137.5776977524313
31
-326.4033234782211
  0
LINE
 8
X-CARVE
10
-7482.420980815134
20
-1137.5776977524313
30
-326.4033234782211
11
-7485.537317723268
21
-1147.1308353485445
31
-326.4033234782211
  0
LINE
 8
X-CARVE
10
-7485.537317723268
20
-1147.1308353485445
30
-326.4033234782211
11
-7479.291035448886
21
-1147.1308353485445
31
-326.4033234782211
  0
LINE
 8
X-CARVE
10
-7456.251915861679
20
-1155.0917833453054
30
-326.4033234782211
11
-7459.749289597008
21
-1155.0917833453054
31
-326.4033234782211
  0
LINE
 8
X-CARVE
10
-7459.749289597008
20
-1155.0917833453054
30
-326.4033234782211
11
-7466.172481826873
21
-1147.0355761417454
31
-326.4033234782211
  0
LINE
 8
X-CARVE
10
-7466.172481826873
20
-1147.0355761417454
30
-326.4033234782211
11
-7469.247993360665
21
-1147.0355761417454
31
-326.4033234782211
  0
LINE
 8
X-CARVE
10
-7469.247993360665
20
-1147.0355761417454
30
-326.4033234782211
11
-7469.247993360665
21
-1155.0917833453054
31
-326.4033234782211
  0
LINE
 8
X-CARVE
10
-7469.247993360665
20
-1155.0917833453054
30
-326.4033234782211
11
-7471.942468067261
21
-1155.0917833453054
31
-326.4033234782211
  0
LINE
 8
X-CARVE
10
-7471.942468067261
20
-1155.0917833453054
30
-326.4033234782211
11
-7471.942468067261
21
-1134.8287892133785
31
-326.4033234782211
  0
LINE
 8
X-CARVE
10
-7471.942468067261
20
-1134.8287892133785
30
-326.4033234782211
11
-7466.716820151438
21
-1134.8287892133785
31
-326.4033234782211
  0
LINE
 8
X-CARVE
10
-7466.716820151438
20
-1134.8287892133785
30
-326.4033234782211
11
-7463.797805885959
21
-1135.0193076269761
31
-326.4033234782211
  0
LINE
 8
X-CARVE
10
-7463.797805885959
20
-1135.0193076269761
30
-326.4033234782211
11
-7462.64959223258
21
-1135.3357042781295
31
-326.4033234782211
  0
LINE
 8
X-CARVE
10
-7462.64959223258
20
-1135.3357042781295
30
-326.4033234782211
11
-7461.559214526185
21
-1135.903857404394
31
-326.4033234782211
  0
LINE
 8
X-CARVE
10
-7461.559214526185
20
-1135.903857404394
30
-326.4033234782211
11
-7460.608323515461
21
-1136.6829416314276
31
-326.4033234782211
  0
LINE
 8
X-CARVE
10
-7460.608323515461
20
-1136.6829416314276
30
-326.4033234782211
11
-7459.878569949092
21
-1137.6593485011158
31
-326.4033234782211
  0
LINE
 8
X-CARVE
10
-7459.878569949092
20
-1137.6593485011158
30
-326.4033234782211
11
-7459.414181315948
21
-1138.8636970442155
31
-326.4033234782211
  0
LINE
 8
X-CARVE
10
-7459.414181315948
20
-1138.8636970442155
30
-326.4033234782211
11
-7459.2593851049
21
-1140.3266062914836
31
-326.4033234782211
  0
LINE
 8
X-CARVE
10
-7459.2593851049
20
-1140.3266062914836
30
-326.4033234782211
11
-7459.541760610768
21
-1142.3746792376587
31
-326.4033234782211
  0
LINE
 8
X-CARVE
10
-7459.541760610768
20
-1142.3746792376587
30
-326.4033234782211
11
-7459.8947299931015
21
-1143.2609300723411
31
-326.4033234782211
  0
LINE
 8
X-CARVE
10
-7459.8947299931015
20
-1143.2609300723411
30
-326.4033234782211
11
-7460.388887128372
21
-1144.055323814753
31
-326.4033234782211
  0
LINE
 8
X-CARVE
10
-7460.388887128372
20
-1144.055323814753
30
-326.4033234782211
11
-7461.722516023556
21
-1145.3583336791799
31
-326.4033234782211
  0
LINE
 8
X-CARVE
10
-7461.722516023556
20
-1145.3583336791799
30
-326.4033234782211
11
-7463.464398662163
21
-1146.2735024873546
31
-326.4033234782211
  0
LINE
 8
X-CARVE
10
-7463.464398662163
20
-1146.2735024873546
30
-326.4033234782211
11
-7456.251915861679
21
-1155.0917833453054
31
-326.4033234782211
  0
LINE
 8
X-CARVE
10
-7462.076335934523
20
-1140.5307331631955
30
-326.4033234782211
11
-7462.15458456868
21
-1139.6955140464413
31
-326.4033234782211
  0
LINE
 8
X-CARVE
10
-7462.15458456868
20
-1139.6955140464413
30
-326.4033234782211
11
-7462.389330471148
21
-1138.9589562510146
31
-326.4033234782211
  0
LINE
 8
X-CARVE
10
-7462.389330471148
20
-1138.9589562510146
30
-326.4033234782211
11
-7462.7873778709845
21
-1138.334668235029
31
-326.4033234782211
  0
LINE
 8
X-CARVE
10
-7462.7873778709845
20
-1138.334668235029
30
-326.4033234782211
11
-7463.35553099725
21
-1137.8362584565994
31
-326.4033234782211
  0
LINE
 8
X-CARVE
10
-7463.35553099725
20
-1137.8362584565994
30
-326.4033234782211
11
-7464.689159892433
21
-1137.2987243610914
31
-326.4033234782211
  0
LINE
 8
X-CARVE
10
-7464.689159892433
20
-1137.2987243610914
30
-326.4033234782211
11
-7466.580735570296
21
-1137.1422270927792
31
-326.4033234782211
  0
LINE
 8
X-CARVE
10
-7466.580735570296
20
-1137.1422270927792
30
-326.4033234782211
11
-7469.247993360665
21
-1137.1422270927792
31
-326.4033234782211
  0
LINE
 8
X-CARVE
10
-7469.247993360665
20
-1137.1422270927792
30
-326.4033234782211
11
-7469.247993360665
21
-1144.7901805529154
31
-326.4033234782211
  0
LINE
 8
X-CARVE
10
-7469.247993360665
20
-1144.7901805529154
30
-326.4033234782211
11
-7466.880121648807
21
-1144.7901805529154
31
-326.4033234782211
  0
LINE
 8
X-CARVE
10
-7466.880121648807
20
-1144.7901805529154
30
-326.4033234782211
11
-7464.798027557346
21
-1144.5860536812036
31
-326.4033234782211
  0
LINE
 8
X-CARVE
10
-7464.798027557346
20
-1144.5860536812036
30
-326.4033234782211
11
-7463.940694696157
21
-1144.2730591445788
31
-326.4033234782211
  0
LINE
 8
X-CARVE
10
-7463.940694696157
20
-1144.2730591445788
30
-326.4033234782211
11
-7463.219446416108
21
-1143.7423292781282
31
-326.4033234782211
  0
LINE
 8
X-CARVE
10
-7463.219446416108
20
-1143.7423292781282
30
-326.4033234782211
11
-7462.710830294092
21
-1143.1163402048785
31
-326.4033234782211
  0
LINE
 8
X-CARVE
10
-7462.710830294092
20
-1143.1163402048785
30
-326.4033234782211
11
-7462.355309325862
21
-1142.381483466716
31
-326.4033234782211
  0
LINE
 8
X-CARVE
10
-7462.355309325862
20
-1142.381483466716
30
-326.4033234782211
11
-7462.076335934523
21
-1140.5307331631955
31
-326.4033234782211
  0
LINE
 8
X-CARVE
10
-7439.962591499076
20
-1134.8287892133785
30
-326.4033234782211
11
-7446.930122053505
21
-1155.0917833453054
31
-326.4033234782211
  0
LINE
 8
X-CARVE
10
-7446.930122053505
20
-1155.0917833453054
30
-326.4033234782211
11
-7449.8423320899265
21
-1155.0917833453054
31
-326.4033234782211
  0
LINE
 8
X-CARVE
10
-7449.8423320899265
20
-1155.0917833453054
30
-326.4033234782211
11
-7456.809862644358
21
-1134.8287892133785
31
-326.4033234782211
  0
LINE
 8
X-CARVE
10
-7456.809862644358
20
-1134.8287892133785
30
-326.4033234782211
11
-7453.924869524163
21
-1134.8287892133785
31
-326.4033234782211
  0
LINE
 8
X-CARVE
10
-7453.924869524163
20
-1134.8287892133785
30
-326.4033234782211
11
-7448.318184781146
21
-1151.6488434424325
31
-326.4033234782211
  0
LINE
 8
X-CARVE
10
-7448.318184781146
20
-1151.6488434424325
30
-326.4033234782211
11
-7442.711500038127
21
-1134.8287892133785
31
-326.4033234782211
  0
LINE
 8
X-CARVE
10
-7442.711500038127
20
-1134.8287892133785
30
-326.4033234782211
11
-7439.962591499076
21
-1134.8287892133785
31
-326.4033234782211
  0
LINE
 8
X-CARVE
10
-7438.016581988756
20
-1155.0917833453054
30
-326.4033234782211
11
-7438.016581988756
21
-1134.8287892133785
31
-326.4033234782211
  0
LINE
 8
X-CARVE
10
-7438.016581988756
20
-1134.8287892133785
30
-326.4033234782211
11
-7425.347107484508
21
-1134.8287892133785
31
-326.4033234782211
  0
LINE
 8
X-CARVE
10
-7425.347107484508
20
-1134.8287892133785
30
-326.4033234782211
11
-7425.347107484508
21
-1137.223877841464
31
-326.4033234782211
  0
LINE
 8
X-CARVE
10
-7425.347107484508
20
-1137.223877841464
30
-326.4033234782211
11
-7435.32210728216
21
-1137.223877841464
31
-326.4033234782211
  0
LINE
 8
X-CARVE
10
-7435.32210728216
20
-1137.223877841464
30
-326.4033234782211
11
-7435.32210728216
21
-1142.7761287520254
31
-326.4033234782211
  0
LINE
 8
X-CARVE
10
-7435.32210728216
20
-1142.7761287520254
30
-326.4033234782211
11
-7426.027530390214
21
-1142.7761287520254
31
-326.4033234782211
  0
LINE
 8
X-CARVE
10
-7426.027530390214
20
-1142.7761287520254
30
-326.4033234782211
11
-7426.027530390214
21
-1145.1712173801109
31
-326.4033234782211
  0
LINE
 8
X-CARVE
10
-7426.027530390214
20
-1145.1712173801109
30
-326.4033234782211
11
-7435.32210728216
21
-1145.1712173801109
31
-326.4033234782211
  0
LINE
 8
X-CARVE
10
-7435.32210728216
20
-1145.1712173801109
30
-326.4033234782211
11
-7435.32210728216
21
-1152.69669471722
31
-326.4033234782211
  0
LINE
 8
X-CARVE
10
-7435.32210728216
20
-1152.69669471722
30
-326.4033234782211
11
-7425.347107484508
21
-1152.69669471722
31
-326.4033234782211
  0
LINE
 8
X-CARVE
10
-7425.347107484508
20
-1152.69669471722
30
-326.4033234782211
11
-7425.347107484508
21
-1155.0917833453054
31
-326.4033234782211
  0
LINE
 8
X-CARVE
10
-7425.347107484508
20
-1155.0917833453054
30
-326.4033234782211
11
-7438.016581988756
21
-1155.0917833453054
31
-326.4033234782211
  0
POLYLINE
 8
Component#3
 66
     1
70
    8
 10
0.0
 20
 0.0
 30
0.0
  0
VERTEX
  8
MY3DLAYER
10
-7493.623546968778
20
-1188.4365246971242
30
-326.4033234782211
 70
     32
  0
VERTEX
  8
MY3DLAYER
10
-7495.003986485169
20
-1189.0083214668487
30
-326.4033234782211
 70
     32
  0
VERTEX
  8
MY3DLAYER
10
-7500.243107452388
20
-1189.0083214668487
30
-326.4033234782211
 70
     32
  0
VERTEX
  8
MY3DLAYER
10
-7501.623546968778
20
-1188.4365246971242
30
-326.4033234782211
 70
     32
  0
VERTEX
  8
MY3DLAYER
10
-7503.280401218271
20
-1187.1651757163409
30
-326.4033234782211
 70
     32
  0
VERTEX
  8
MY3DLAYER
10
-7504.5517501990535
20
-1185.5083214668487
30
-326.4033234782211
 70
     32
  0
VERTEX
  8
MY3DLAYER
10
-7505.35095357909
20
-1183.5788738276688
30
-326.4033234782211
 70
     32
  0
VERTEX
  8
MY3DLAYER
10
-7505.623546968778
20
-1181.5083214668487
30
-326.4033234782211
 70
     32
  0
VERTEX
  8
MY3DLAYER
10
-7505.35095357909
20
-1179.4377691060283
30
-326.4033234782211
 70
     32
  0
VERTEX
  8
MY3DLAYER
10
-7504.5517501990535
20
-1177.5083214668487
30
-326.4033234782211
 70
     32
  0
VERTEX
  8
MY3DLAYER
10
-7503.28040121827
20
-1175.8514672173562
30
-326.4033234782211
 70
     32
  0
VERTEX
  8
MY3DLAYER
10
-7501.623546968778
20
-1174.580118236573
30
-326.4033234782211
 70
     32
  0
VERTEX
  8
MY3DLAYER
10
-7500.243107452388
20
-1174.0083214668487
30
-326.4033234782211
 70
     32
  0
VERTEX
  8
MY3DLAYER
10
-7495.003986485169
20
-1174.0083214668487
30
-326.4033234782211
 70
     32
  0
VERTEX
  8
MY3DLAYER
10
-7493.623546968778
20
-1174.580118236573
30
-326.4033234782211
 70
     32
  0
VERTEX
  8
MY3DLAYER
10
-7491.966692719286
20
-1175.8514672173562
30
-326.4033234782211
 70
     32
  0
VERTEX
  8
MY3DLAYER
10
-7490.695343738502
20
-1177.5083214668487
30
-326.4033234782211
 70
     32
  0
VERTEX
  8
MY3DLAYER
10
-7489.896140358465
20
-1179.4377691060283
30
-326.4033234782211
 70
     32
  0
VERTEX
  8
MY3DLAYER
10
-7489.623546968779
20
-1181.5083214668487
30
-326.4033234782211
 70
     32
  0
VERTEX
  8
MY3DLAYER
10
-7489.896140358465
20
-1183.5788738276688
30
-326.4033234782211
 70
     32
  0
VERTEX
  8
MY3DLAYER
10
-7490.695343738502
20
-1185.5083214668487
30
-326.4033234782211
 70
     32
  0
VERTEX
  8
MY3DLAYER
10
-7491.966692719286
20
-1187.1651757163409
30
-326.4033234782211
 70
     32
  0
VERTEX
  8
MY3DLAYER
10
-7493.623546968778
20
-1188.4365246971242
30
-326.4033234782211
 70
     32
  0
SEQEND
  0
POLYLINE
 8
Component#3
 66
     1
70
    8
 10
0.0
 20
 0.0
 30
0.0
  0
VERTEX
  8
MY3DLAYER
10
-7490.560717282364
20
-1189.9413776637855
30
-326.4033234782211
 70
     32
  0
VERTEX
  8
MY3DLAYER
10
-7492.984012920176
20
-1191.4820230771766
30
-326.4033234782211
 70
     32
  0
VERTEX
  8
MY3DLAYER
10
-7495.723485136208
20
-1192.3429772081454
30
-326.4033234782211
 70
     32
  0
VERTEX
  8
MY3DLAYER
10
-7498.59244342613
20
-1192.4655674554597
30
-326.4033234782211
 70
     32
  0
VERTEX
  8
MY3DLAYER
10
-7501.395373023659
20
-1191.8414394963552
30
-326.4033234782211
 70
     32
  0
VERTEX
  8
MY3DLAYER
10
-7503.941258908788
20
-1190.513126619825
30
-326.4033234782211
 70
     32
  0
VERTEX
  8
MY3DLAYER
10
-7506.0566031657145
20
-1188.5711511532636
30
-326.4033234782211
 70
     32
  0
VERTEX
  8
MY3DLAYER
10
-7507.597248579107
20
-1186.1478555154508
30
-326.4033234782211
 70
     32
  0
VERTEX
  8
MY3DLAYER
10
-7508.458202710074
20
-1183.4083832994183
30
-326.4033234782211
 70
     32
  0
VERTEX
  8
MY3DLAYER
10
-7508.580792957388
20
-1180.5394250094969
30
-326.4033234782211
 70
     32
  0
VERTEX
  8
MY3DLAYER
10
-7507.956664998284
20
-1177.7364954119669
30
-326.4033234782211
 70
     32
  0
VERTEX
  8
MY3DLAYER
10
-7506.628352121755
20
-1175.1906095268398
30
-326.4033234782211
 70
     32
  0
VERTEX
  8
MY3DLAYER
10
-7504.686376655193
20
-1173.0752652699116
30
-326.4033234782211
 70
     32
  0
VERTEX
  8
MY3DLAYER
10
-7502.26308101738
20
-1171.5346198565205
30
-326.4033234782211
 70
     32
  0
VERTEX
  8
MY3DLAYER
10
-7499.523608801347
20
-1170.6736657255522
30
-326.4033234782211
 70
     32
  0
VERTEX
  8
MY3DLAYER
10
-7496.654650511427
20
-1170.5510754782376
30
-326.4033234782211
 70
     32
  0
VERTEX
  8
MY3DLAYER
10
-7493.851720913896
20
-1171.175203437342
30
-326.4033234782211
 70
     32
  0
VERTEX
  8
MY3DLAYER
10
-7491.305835028769
20
-1172.5035163138723
30
-326.4033234782211
 70
     32
  0
VERTEX
  8
MY3DLAYER
10
-7489.190490771842
20
-1174.4454917804337
30
-326.4033234782211
 70
     32
  0
VERTEX
  8
MY3DLAYER
10
-7487.64984535845
20
-1176.8687874182465
30
-326.4033234782211
 70
     32
  0
VERTEX
  8
MY3DLAYER
10
-7486.788891227481
20
-1179.608259634279
30
-326.4033234782211
 70
     32
  0
VERTEX
  8
MY3DLAYER
10
-7486.666300980167
20
-1182.4772179242004
30
-326.4033234782211
 70
     32
  0
VERTEX
  8
MY3DLAYER
10
-7487.290428939271
20
-1185.2801475217304
30
-326.4033234782211
 70
     32
  0
VERTEX
  8
MY3DLAYER
10
-7488.6187418158015
20
-1187.8260334068573
30
-326.4033234782211
 70
     32
  0
VERTEX
  8
MY3DLAYER
10
-7490.560717282364
20
-1189.9413776637855
30
-326.4033234782211
 70
     32
  0
SEQEND
  0
POLYLINE
 8
Component#3
 66
     1
70
    8
 10
0.0
 20
 0.0
 30
0.0
  0
VERTEX
  8
MY3DLAYER
10
-7495.003986485169
20
-1189.0083214668487
30
-326.4033234782211
 70
     32
  0
VERTEX
  8
MY3DLAYER
10
-7493.623546968778
20
-1188.4365246971242
30
-326.4033234782211
 70
     32
  0
VERTEX
  8
MY3DLAYER
10
-7491.966692719286
20
-1187.1651757163409
30
-326.4033234782211
 70
     32
  0
VERTEX
  8
MY3DLAYER
10
-7490.695343738502
20
-1185.5083214668487
30
-326.4033234782211
 70
     32
  0
VERTEX
  8
MY3DLAYER
10
-7489.896140358465
20
-1183.5788738276688
30
-326.4033234782211
 70
     32
  0
VERTEX
  8
MY3DLAYER
10
-7489.623546968779
20
-1181.5083214668487
30
-326.4033234782211
 70
     32
  0
VERTEX
  8
MY3DLAYER
10
-7489.896140358465
20
-1179.4377691060283
30
-326.4033234782211
 70
     32
  0
VERTEX
  8
MY3DLAYER
10
-7490.695343738502
20
-1177.5083214668487
30
-326.4033234782211
 70
     32
  0
VERTEX
  8
MY3DLAYER
10
-7491.966692719286
20
-1175.8514672173562
30
-326.4033234782211
 70
     32
  0
VERTEX
  8
MY3DLAYER
10
-7493.623546968778
20
-1174.580118236573
30
-326.4033234782211
 70
     32
  0
VERTEX
  8
MY3DLAYER
10
-7495.003986485169
20
-1174.0083214668487
30
-326.4033234782211
 70
     32
  0
VERTEX
  8
MY3DLAYER
10
-7500.243107452388
20
-1174.0083214668487
30
-326.4033234782211
 70
     32
  0
VERTEX
  8
MY3DLAYER
10
-7501.623546968778
20
-1174.580118236573
30
-326.4033234782211
 70
     32
  0
VERTEX
  8
MY3DLAYER
10
-7503.28040121827
20
-1175.8514672173562
30
-326.4033234782211
 70
     32
  0
VERTEX
  8
MY3DLAYER
10
-7504.5517501990535
20
-1177.5083214668487
30
-326.4033234782211
 70
     32
  0
VERTEX
  8
MY3DLAYER
10
-7505.35095357909
20
-1179.4377691060283
30
-326.4033234782211
 70
     32
  0
VERTEX
  8
MY3DLAYER
10
-7505.623546968778
20
-1181.5083214668487
30
-326.4033234782211
 70
     32
  0
VERTEX
  8
MY3DLAYER
10
-7505.35095357909
20
-1183.5788738276688
30
-326.4033234782211
 70
     32
  0
VERTEX
  8
MY3DLAYER
10
-7504.5517501990535
20
-1185.5083214668487
30
-326.4033234782211
 70
     32
  0
VERTEX
  8
MY3DLAYER
10
-7503.280401218271
20
-1187.1651757163409
30
-326.4033234782211
 70
     32
  0
VERTEX
  8
MY3DLAYER
10
-7501.623546968778
20
-1188.4365246971242
30
-326.4033234782211
 70
     32
  0
VERTEX
  8
MY3DLAYER
10
-7500.243107452388
20
-1189.0083214668487
30
-326.4033234782211
 70
     32
  0
VERTEX
  8
MY3DLAYER
10
-7495.003986485169
20
-1189.0083214668487
30
-326.4033234782211
 70
     32
  0
SEQEND
  0
POLYLINE
 8
Component#3
 66
     1
70
    8
 10
0.0
 20
 0.0
 30
0.0
  0
VERTEX
  8
MY3DLAYER
10
-7469.623546968778
20
-1188.4365246971242
30
-326.4033234782211
 70
     32
  0
VERTEX
  8
MY3DLAYER
10
-7471.003986485169
20
-1189.0083214668487
30
-326.4033234782211
 70
     32
  0
VERTEX
  8
MY3DLAYER
10
-7476.243107452388
20
-1189.0083214668487
30
-326.4033234782211
 70
     32
  0
VERTEX
  8
MY3DLAYER
10
-7477.623546968777
20
-1188.4365246971242
30
-326.4033234782211
 70
     32
  0
VERTEX
  8
MY3DLAYER
10
-7479.280401218271
20
-1187.1651757163409
30
-326.4033234782211
 70
     32
  0
VERTEX
  8
MY3DLAYER
10
-7480.5517501990535
20
-1185.5083214668487
30
-326.4033234782211
 70
     32
  0
VERTEX
  8
MY3DLAYER
10
-7481.35095357909
20
-1183.5788738276688
30
-326.4033234782211
 70
     32
  0
VERTEX
  8
MY3DLAYER
10
-7481.623546968778
20
-1181.5083214668487
30
-326.4033234782211
 70
     32
  0
VERTEX
  8
MY3DLAYER
10
-7481.35095357909
20
-1179.4377691060283
30
-326.4033234782211
 70
     32
  0
VERTEX
  8
MY3DLAYER
10
-7480.5517501990535
20
-1177.5083214668487
30
-326.4033234782211
 70
     32
  0
VERTEX
  8
MY3DLAYER
10
-7479.28040121827
20
-1175.8514672173562
30
-326.4033234782211
 70
     32
  0
VERTEX
  8
MY3DLAYER
10
-7477.623546968777
20
-1174.580118236573
30
-326.4033234782211
 70
     32
  0
VERTEX
  8
MY3DLAYER
10
-7476.243107452388
20
-1174.0083214668487
30
-326.4033234782211
 70
     32
  0
VERTEX
  8
MY3DLAYER
10
-7471.003986485169
20
-1174.0083214668487
30
-326.4033234782211
 70
     32
  0
VERTEX
  8
MY3DLAYER
10
-7469.623546968778
20
-1174.580118236573
30
-326.4033234782211
 70
     32
  0
VERTEX
  8
MY3DLAYER
10
-7467.966692719286
20
-1175.8514672173562
30
-326.4033234782211
 70
     32
  0
VERTEX
  8
MY3DLAYER
10
-7466.695343738502
20
-1177.5083214668487
30
-326.4033234782211
 70
     32
  0
VERTEX
  8
MY3DLAYER
10
-7465.896140358465
20
-1179.4377691060283
30
-326.4033234782211
 70
     32
  0
VERTEX
  8
MY3DLAYER
10
-7465.623546968779
20
-1181.5083214668487
30
-326.4033234782211
 70
     32
  0
VERTEX
  8
MY3DLAYER
10
-7465.896140358465
20
-1183.5788738276688
30
-326.4033234782211
 70
     32
  0
VERTEX
  8
MY3DLAYER
10
-7466.695343738502
20
-1185.5083214668487
30
-326.4033234782211
 70
     32
  0
VERTEX
  8
MY3DLAYER
10
-7467.966692719286
20
-1187.1651757163409
30
-326.4033234782211
 70
     32
  0
VERTEX
  8
MY3DLAYER
10
-7469.623546968778
20
-1188.4365246971242
30
-326.4033234782211
 70
     32
  0
SEQEND
  0
POLYLINE
 8
Component#3
 66
     1
70
    8
 10
0.0
 20
 0.0
 30
0.0
  0
VERTEX
  8
MY3DLAYER
10
-7466.560717282363
20
-1189.9413776637855
30
-326.4033234782211
 70
     32
  0
VERTEX
  8
MY3DLAYER
10
-7468.984012920176
20
-1191.4820230771766
30
-326.4033234782211
 70
     32
  0
VERTEX
  8
MY3DLAYER
10
-7471.723485136208
20
-1192.3429772081454
30
-326.4033234782211
 70
     32
  0
VERTEX
  8
MY3DLAYER
10
-7474.59244342613
20
-1192.4655674554597
30
-326.4033234782211
 70
     32
  0
VERTEX
  8
MY3DLAYER
10
-7477.395373023659
20
-1191.8414394963552
30
-326.4033234782211
 70
     32
  0
VERTEX
  8
MY3DLAYER
10
-7479.941258908787
20
-1190.513126619825
30
-326.4033234782211
 70
     32
  0
VERTEX
  8
MY3DLAYER
10
-7482.0566031657145
20
-1188.5711511532636
30
-326.4033234782211
 70
     32
  0
VERTEX
  8
MY3DLAYER
10
-7483.597248579106
20
-1186.1478555154508
30
-326.4033234782211
 70
     32
  0
VERTEX
  8
MY3DLAYER
10
-7484.458202710074
20
-1183.4083832994183
30
-326.4033234782211
 70
     32
  0
VERTEX
  8
MY3DLAYER
10
-7484.580792957388
20
-1180.5394250094969
30
-326.4033234782211
 70
     32
  0
VERTEX
  8
MY3DLAYER
10
-7483.956664998284
20
-1177.7364954119669
30
-326.4033234782211
 70
     32
  0
VERTEX
  8
MY3DLAYER
10
-7482.628352121754
20
-1175.1906095268398
30
-326.4033234782211
 70
     32
  0
VERTEX
  8
MY3DLAYER
10
-7480.686376655193
20
-1173.0752652699116
30
-326.4033234782211
 70
     32
  0
VERTEX
  8
MY3DLAYER
10
-7478.26308101738
20
-1171.5346198565205
30
-326.4033234782211
 70
     32
  0
VERTEX
  8
MY3DLAYER
10
-7475.523608801347
20
-1170.6736657255522
30
-326.4033234782211
 70
     32
  0
VERTEX
  8
MY3DLAYER
10
-7472.654650511426
20
-1170.5510754782376
30
-326.4033234782211
 70
     32
  0
VERTEX
  8
MY3DLAYER
10
-7469.851720913896
20
-1171.175203437342
30
-326.4033234782211
 70
     32
  0
VERTEX
  8
MY3DLAYER
10
-7467.305835028769
20
-1172.5035163138723
30
-326.4033234782211
 70
     32
  0
VERTEX
  8
MY3DLAYER
10
-7465.190490771841
20
-1174.4454917804337
30
-326.4033234782211
 70
     32
  0
VERTEX
  8
MY3DLAYER
10
-7463.64984535845
20
-1176.8687874182465
30
-326.4033234782211
 70
     32
  0
VERTEX
  8
MY3DLAYER
10
-7462.788891227481
20
-1179.608259634279
30
-326.4033234782211
 70
     32
  0
VERTEX
  8
MY3DLAYER
10
-7462.666300980167
20
-1182.4772179242004
30
-326.4033234782211
 70
     32
  0
VERTEX
  8
MY3DLAYER
10
-7463.290428939271
20
-1185.2801475217304
30
-326.4033234782211
 70
     32
  0
VERTEX
  8
MY3DLAYER
10
-7464.6187418158015
20
-1187.8260334068573
30
-326.4033234782211
 70
     32
  0
VERTEX
  8
MY3DLAYER
10
-7466.560717282363
20
-1189.9413776637855
30
-326.4033234782211
 70
     32
  0
SEQEND
  0
POLYLINE
 8
Component#3
 66
     1
70
    8
 10
0.0
 20
 0.0
 30
0.0
  0
VERTEX
  8
MY3DLAYER
10
-7471.003986485169
20
-1189.0083214668487
30
-326.4033234782211
 70
     32
  0
VERTEX
  8
MY3DLAYER
10
-7469.623546968778
20
-1188.4365246971242
30
-326.4033234782211
 70
     32
  0
VERTEX
  8
MY3DLAYER
10
-7467.966692719286
20
-1187.1651757163409
30
-326.4033234782211
 70
     32
  0
VERTEX
  8
MY3DLAYER
10
-7466.695343738502
20
-1185.5083214668487
30
-326.4033234782211
 70
     32
  0
VERTEX
  8
MY3DLAYER
10
-7465.896140358465
20
-1183.5788738276688
30
-326.4033234782211
 70
     32
  0
VERTEX
  8
MY3DLAYER
10
-7465.623546968779
20
-1181.5083214668487
30
-326.4033234782211
 70
     32
  0
VERTEX
  8
MY3DLAYER
10
-7465.896140358465
20
-1179.4377691060283
30
-326.4033234782211
 70
     32
  0
VERTEX
  8
MY3DLAYER
10
-7466.695343738502
20
-1177.5083214668487
30
-326.4033234782211
 70
     32
  0
VERTEX
  8
MY3DLAYER
10
-7467.966692719286
20
-1175.8514672173562
30
-326.4033234782211
 70
     32
  0
VERTEX
  8
MY3DLAYER
10
-7469.623546968778
20
-1174.580118236573
30
-326.4033234782211
 70
     32
  0
VERTEX
  8
MY3DLAYER
10
-7471.003986485169
20
-1174.0083214668487
30
-326.4033234782211
 70
     32
  0
VERTEX
  8
MY3DLAYER
10
-7476.243107452388
20
-1174.0083214668487
30
-326.4033234782211
 70
     32
  0
VERTEX
  8
MY3DLAYER
10
-7477.623546968777
20
-1174.580118236573
30
-326.4033234782211
 70
     32
  0
VERTEX
  8
MY3DLAYER
10
-7479.28040121827
20
-1175.8514672173562
30
-326.4033234782211
 70
     32
  0
VERTEX
  8
MY3DLAYER
10
-7480.5517501990535
20
-1177.5083214668487
30
-326.4033234782211
 70
     32
  0
VERTEX
  8
MY3DLAYER
10
-7481.35095357909
20
-1179.4377691060283
30
-326.4033234782211
 70
     32
  0
VERTEX
  8
MY3DLAYER
10
-7481.623546968778
20
-1181.5083214668487
30
-326.4033234782211
 70
     32
  0
VERTEX
  8
MY3DLAYER
10
-7481.35095357909
20
-1183.5788738276688
30
-326.4033234782211
 70
     32
  0
VERTEX
  8
MY3DLAYER
10
-7480.5517501990535
20
-1185.5083214668487
30
-326.4033234782211
 70
     32
  0
VERTEX
  8
MY3DLAYER
10
-7479.280401218271
20
-1187.1651757163409
30
-326.4033234782211
 70
     32
  0
VERTEX
  8
MY3DLAYER
10
-7477.623546968777
20
-1188.4365246971242
30
-326.4033234782211
 70
     32
  0
VERTEX
  8
MY3DLAYER
10
-7476.243107452388
20
-1189.0083214668487
30
-326.4033234782211
 70
     32
  0
VERTEX
  8
MY3DLAYER
10
-7471.003986485169
20
-1189.0083214668487
30
-326.4033234782211
 70
     32
  0
SEQEND
  0
POLYLINE
 8
Layer0
 66
     1
70
    8
 10
0.0
 20
 0.0
 30
0.0
  0
VERTEX
  8
MY3DLAYER
10
-7458.415863170371
20
-1077.2586354560283
30
-326.4033234782211
 70
     32
  0
VERTEX
  8
MY3DLAYER
10
-7458.778557064683
20
-1076.8830738382921
30
-326.4033234782211
 70
     32
  0
VERTEX
  8
MY3DLAYER
10
-7459.226094963516
20
-1076.614181259748
30
-326.4033234782211
 70
     32
  0
VERTEX
  8
MY3DLAYER
10
-7459.727977898655
20
-1076.4702823052578
30
-326.4033234782211
 70
     32
  0
VERTEX
  8
MY3DLAYER
10
-7460.250003377472
20
-1076.4611834507657
30
-326.4033234782211
 70
     32
  0
VERTEX
  8
MY3DLAYER
10
-7460.756596226275
20
-1076.5875047681689
30
-326.4033234782211
 70
     32
  0
VERTEX
  8
MY3DLAYER
10
-7461.213232979599
20
-1076.840637668442
30
-326.4033234782211
 70
     32
  0
VERTEX
  8
MY3DLAYER
10
-7461.588794597335
20
-1077.2033315627536
30
-326.4033234782211
 70
     32
  0
VERTEX
  8
MY3DLAYER
10
-7461.85768717588
20
-1077.6508694615864
30
-326.4033234782211
 70
     32
  0
VERTEX
  8
MY3DLAYER
10
-7462.001586130369
20
-1078.1527523967256
30
-326.4033234782211
 70
     32
  0
VERTEX
  8
MY3DLAYER
10
-7462.010684984862
20
-1078.674777875543
30
-326.4033234782211
 70
     32
  0
VERTEX
  8
MY3DLAYER
10
-7461.884363667459
20
-1079.1813707243448
30
-326.4033234782211
 70
     32
  0
VERTEX
  8
MY3DLAYER
10
-7461.631230767185
20
-1079.6380074776696
30
-326.4033234782211
 70
     32
  0
VERTEX
  8
MY3DLAYER
10
-7461.268536872874
20
-1080.0135690954057
30
-326.4033234782211
 70
     32
  0
VERTEX
  8
MY3DLAYER
10
-7460.820998974042
20
-1080.28246167395
30
-326.4033234782211
 70
     32
  0
VERTEX
  8
MY3DLAYER
10
-7460.319116038902
20
-1080.42636062844
30
-326.4033234782211
 70
     32
  0
VERTEX
  8
MY3DLAYER
10
-7459.797090560084
20
-1080.4354594829322
30
-326.4033234782211
 70
     32
  0
VERTEX
  8
MY3DLAYER
10
-7459.290497711282
20
-1080.309138165529
30
-326.4033234782211
 70
     32
  0
VERTEX
  8
MY3DLAYER
10
-7458.833860957959
20
-1080.0560052652559
30
-326.4033234782211
 70
     32
  0
VERTEX
  8
MY3DLAYER
10
-7458.458299340222
20
-1079.6933113709442
30
-326.4033234782211
 70
     32
  0
VERTEX
  8
MY3DLAYER
10
-7458.189406761678
20
-1079.2457734721115
30
-326.4033234782211
 70
     32
  0
VERTEX
  8
MY3DLAYER
10
-7458.045507807188
20
-1078.7438905369722
30
-326.4033234782211
 70
     32
  0
VERTEX
  8
MY3DLAYER
10
-7458.036408952696
20
-1078.221865058155
30
-326.4033234782211
 70
     32
  0
VERTEX
  8
MY3DLAYER
10
-7458.162730270098
20
-1077.715272209353
30
-326.4033234782211
 70
     32
  0
VERTEX
  8
MY3DLAYER
10
-7458.415863170371
20
-1077.2586354560283
30
-326.4033234782211
 70
     32
  0
SEQEND
  0
POLYLINE
 8
Component#3
 66
     1
70
    8
 10
0.0
 20
 0.0
 30
0.0
  0
VERTEX
  8
MY3DLAYER
10
-7445.623546968777
20
-1188.4365246971242
30
-326.4033234782211
 70
     32
  0
VERTEX
  8
MY3DLAYER
10
-7447.003986485168
20
-1189.0083214668487
30
-326.4033234782211
 70
     32
  0
VERTEX
  8
MY3DLAYER
10
-7452.243107452387
20
-1189.0083214668487
30
-326.4033234782211
 70
     32
  0
VERTEX
  8
MY3DLAYER
10
-7453.623546968777
20
-1188.4365246971242
30
-326.4033234782211
 70
     32
  0
VERTEX
  8
MY3DLAYER
10
-7455.2804012182705
20
-1187.1651757163409
30
-326.4033234782211
 70
     32
  0
VERTEX
  8
MY3DLAYER
10
-7456.5517501990535
20
-1185.5083214668487
30
-326.4033234782211
 70
     32
  0
VERTEX
  8
MY3DLAYER
10
-7457.35095357909
20
-1183.5788738276688
30
-326.4033234782211
 70
     32
  0
VERTEX
  8
MY3DLAYER
10
-7457.623546968777
20
-1181.5083214668487
30
-326.4033234782211
 70
     32
  0
VERTEX
  8
MY3DLAYER
10
-7457.35095357909
20
-1179.4377691060283
30
-326.4033234782211
 70
     32
  0
VERTEX
  8
MY3DLAYER
10
-7456.5517501990535
20
-1177.5083214668487
30
-326.4033234782211
 70
     32
  0
VERTEX
  8
MY3DLAYER
10
-7455.28040121827
20
-1175.8514672173562
30
-326.4033234782211
 70
     32
  0
VERTEX
  8
MY3DLAYER
10
-7453.623546968777
20
-1174.580118236573
30
-326.4033234782211
 70
     32
  0
VERTEX
  8
MY3DLAYER
10
-7452.243107452387
20
-1174.0083214668487
30
-326.4033234782211
 70
     32
  0
VERTEX
  8
MY3DLAYER
10
-7447.003986485168
20
-1174.0083214668487
30
-326.4033234782211
 70
     32
  0
VERTEX
  8
MY3DLAYER
10
-7445.623546968777
20
-1174.580118236573
30
-326.4033234782211
 70
     32
  0
VERTEX
  8
MY3DLAYER
10
-7443.966692719286
20
-1175.8514672173562
30
-326.4033234782211
 70
     32
  0
VERTEX
  8
MY3DLAYER
10
-7442.695343738502
20
-1177.5083214668487
30
-326.4033234782211
 70
     32
  0
VERTEX
  8
MY3DLAYER
10
-7441.896140358465
20
-1179.4377691060283
30
-326.4033234782211
 70
     32
  0
VERTEX
  8
MY3DLAYER
10
-7441.623546968778
20
-1181.5083214668487
30
-326.4033234782211
 70
     32
  0
VERTEX
  8
MY3DLAYER
10
-7441.896140358465
20
-1183.5788738276688
30
-326.4033234782211
 70
     32
  0
VERTEX
  8
MY3DLAYER
10
-7442.695343738502
20
-1185.5083214668487
30
-326.4033234782211
 70
     32
  0
VERTEX
  8
MY3DLAYER
10
-7443.966692719286
20
-1187.1651757163409
30
-326.4033234782211
 70
     32
  0
VERTEX
  8
MY3DLAYER
10
-7445.623546968777
20
-1188.4365246971242
30
-326.4033234782211
 70
     32
  0
SEQEND
  0
POLYLINE
 8
Component#3
 66
     1
70
    8
 10
0.0
 20
 0.0
 30
0.0
  0
VERTEX
  8
MY3DLAYER
10
-7442.560717282363
20
-1189.9413776637855
30
-326.4033234782211
 70
     32
  0
VERTEX
  8
MY3DLAYER
10
-7444.984012920176
20
-1191.4820230771766
30
-326.4033234782211
 70
     32
  0
VERTEX
  8
MY3DLAYER
10
-7447.723485136208
20
-1192.3429772081454
30
-326.4033234782211
 70
     32
  0
VERTEX
  8
MY3DLAYER
10
-7450.592443426129
20
-1192.4655674554597
30
-326.4033234782211
 70
     32
  0
VERTEX
  8
MY3DLAYER
10
-7453.395373023659
20
-1191.8414394963552
30
-326.4033234782211
 70
     32
  0
VERTEX
  8
MY3DLAYER
10
-7455.941258908787
20
-1190.513126619825
30
-326.4033234782211
 70
     32
  0
VERTEX
  8
MY3DLAYER
10
-7458.056603165714
20
-1188.5711511532636
30
-326.4033234782211
 70
     32
  0
VERTEX
  8
MY3DLAYER
10
-7459.597248579106
20
-1186.1478555154508
30
-326.4033234782211
 70
     32
  0
VERTEX
  8
MY3DLAYER
10
-7460.458202710074
20
-1183.4083832994183
30
-326.4033234782211
 70
     32
  0
VERTEX
  8
MY3DLAYER
10
-7460.580792957388
20
-1180.5394250094969
30
-326.4033234782211
 70
     32
  0
VERTEX
  8
MY3DLAYER
10
-7459.956664998284
20
-1177.7364954119669
30
-326.4033234782211
 70
     32
  0
VERTEX
  8
MY3DLAYER
10
-7458.628352121754
20
-1175.1906095268398
30
-326.4033234782211
 70
     32
  0
VERTEX
  8
MY3DLAYER
10
-7456.686376655193
20
-1173.0752652699116
30
-326.4033234782211
 70
     32
  0
VERTEX
  8
MY3DLAYER
10
-7454.26308101738
20
-1171.5346198565205
30
-326.4033234782211
 70
     32
  0
VERTEX
  8
MY3DLAYER
10
-7451.523608801347
20
-1170.6736657255522
30
-326.4033234782211
 70
     32
  0
VERTEX
  8
MY3DLAYER
10
-7448.654650511426
20
-1170.5510754782376
30
-326.4033234782211
 70
     32
  0
VERTEX
  8
MY3DLAYER
10
-7445.851720913895
20
-1171.175203437342
30
-326.4033234782211
 70
     32
  0
VERTEX
  8
MY3DLAYER
10
-7443.305835028769
20
-1172.5035163138723
30
-326.4033234782211
 70
     32
  0
VERTEX
  8
MY3DLAYER
10
-7441.190490771841
20
-1174.4454917804337
30
-326.4033234782211
 70
     32
  0
VERTEX
  8
MY3DLAYER
10
-7439.64984535845
20
-1176.8687874182465
30
-326.4033234782211
 70
     32
  0
VERTEX
  8
MY3DLAYER
10
-7438.788891227481
20
-1179.608259634279
30
-326.4033234782211
 70
     32
  0
VERTEX
  8
MY3DLAYER
10
-7438.666300980166
20
-1182.4772179242004
30
-326.4033234782211
 70
     32
  0
VERTEX
  8
MY3DLAYER
10
-7439.29042893927
20
-1185.2801475217304
30
-326.4033234782211
 70
     32
  0
VERTEX
  8
MY3DLAYER
10
-7440.618741815801
20
-1187.8260334068573
30
-326.4033234782211
 70
     32
  0
VERTEX
  8
MY3DLAYER
10
-7442.560717282363
20
-1189.9413776637855
30
-326.4033234782211
 70
     32
  0
SEQEND
  0
POLYLINE
 8
Component#3
 66
     1
70
    8
 10
0.0
 20
 0.0
 30
0.0
  0
VERTEX
  8
MY3DLAYER
10
-7447.003986485168
20
-1189.0083214668487
30
-326.4033234782211
 70
     32
  0
VERTEX
  8
MY3DLAYER
10
-7445.623546968777
20
-1188.4365246971242
30
-326.4033234782211
 70
     32
  0
VERTEX
  8
MY3DLAYER
10
-7443.966692719286
20
-1187.1651757163409
30
-326.4033234782211
 70
     32
  0
VERTEX
  8
MY3DLAYER
10
-7442.695343738502
20
-1185.5083214668487
30
-326.4033234782211
 70
     32
  0
VERTEX
  8
MY3DLAYER
10
-7441.896140358465
20
-1183.5788738276688
30
-326.4033234782211
 70
     32
  0
VERTEX
  8
MY3DLAYER
10
-7441.623546968778
20
-1181.5083214668487
30
-326.4033234782211
 70
     32
  0
VERTEX
  8
MY3DLAYER
10
-7441.896140358465
20
-1179.4377691060283
30
-326.4033234782211
 70
     32
  0
VERTEX
  8
MY3DLAYER
10
-7442.695343738502
20
-1177.5083214668487
30
-326.4033234782211
 70
     32
  0
VERTEX
  8
MY3DLAYER
10
-7443.966692719286
20
-1175.8514672173562
30
-326.4033234782211
 70
     32
  0
VERTEX
  8
MY3DLAYER
10
-7445.623546968777
20
-1174.580118236573
30
-326.4033234782211
 70
     32
  0
VERTEX
  8
MY3DLAYER
10
-7447.003986485168
20
-1174.0083214668487
30
-326.4033234782211
 70
     32
  0
VERTEX
  8
MY3DLAYER
10
-7452.243107452387
20
-1174.0083214668487
30
-326.4033234782211
 70
     32
  0
VERTEX
  8
MY3DLAYER
10
-7453.623546968777
20
-1174.580118236573
30
-326.4033234782211
 70
     32
  0
VERTEX
  8
MY3DLAYER
10
-7455.28040121827
20
-1175.8514672173562
30
-326.4033234782211
 70
     32
  0
VERTEX
  8
MY3DLAYER
10
-7456.5517501990535
20
-1177.5083214668487
30
-326.4033234782211
 70
     32
  0
VERTEX
  8
MY3DLAYER
10
-7457.35095357909
20
-1179.4377691060283
30
-326.4033234782211
 70
     32
  0
VERTEX
  8
MY3DLAYER
10
-7457.623546968777
20
-1181.5083214668487
30
-326.4033234782211
 70
     32
  0
VERTEX
  8
MY3DLAYER
10
-7457.35095357909
20
-1183.5788738276688
30
-326.4033234782211
 70
     32
  0
VERTEX
  8
MY3DLAYER
10
-7456.5517501990535
20
-1185.5083214668487
30
-326.4033234782211
 70
     32
  0
VERTEX
  8
MY3DLAYER
10
-7455.2804012182705
20
-1187.1651757163409
30
-326.4033234782211
 70
     32
  0
VERTEX
  8
MY3DLAYER
10
-7453.623546968777
20
-1188.4365246971242
30
-326.4033234782211
 70
     32
  0
VERTEX
  8
MY3DLAYER
10
-7452.243107452387
20
-1189.0083214668487
30
-326.4033234782211
 70
     32
  0
VERTEX
  8
MY3DLAYER
10
-7447.003986485168
20
-1189.0083214668487
30
-326.4033234782211
 70
     32
  0
SEQEND
  0
POLYLINE
 8
Component#3
 66
     1
70
    8
 10
0.0
 20
 0.0
 30
0.0
  0
VERTEX
  8
MY3DLAYER
10
-7421.623546968777
20
-1188.4365246971242
30
-326.4033234782211
 70
     32
  0
VERTEX
  8
MY3DLAYER
10
-7423.003986485168
20
-1189.0083214668487
30
-326.4033234782211
 70
     32
  0
VERTEX
  8
MY3DLAYER
10
-7428.243107452387
20
-1189.0083214668487
30
-326.4033234782211
 70
     32
  0
VERTEX
  8
MY3DLAYER
10
-7429.623546968777
20
-1188.4365246971242
30
-326.4033234782211
 70
     32
  0
VERTEX
  8
MY3DLAYER
10
-7431.2804012182705
20
-1187.1651757163409
30
-326.4033234782211
 70
     32
  0
VERTEX
  8
MY3DLAYER
10
-7432.551750199053
20
-1185.5083214668487
30
-326.4033234782211
 70
     32
  0
VERTEX
  8
MY3DLAYER
10
-7433.350953579089
20
-1183.5788738276688
30
-326.4033234782211
 70
     32
  0
VERTEX
  8
MY3DLAYER
10
-7433.623546968777
20
-1181.5083214668487
30
-326.4033234782211
 70
     32
  0
VERTEX
  8
MY3DLAYER
10
-7433.350953579089
20
-1179.4377691060283
30
-326.4033234782211
 70
     32
  0
VERTEX
  8
MY3DLAYER
10
-7432.551750199053
20
-1177.5083214668487
30
-326.4033234782211
 70
     32
  0
VERTEX
  8
MY3DLAYER
10
-7431.280401218269
20
-1175.8514672173562
30
-326.4033234782211
 70
     32
  0
VERTEX
  8
MY3DLAYER
10
-7429.623546968777
20
-1174.580118236573
30
-326.4033234782211
 70
     32
  0
VERTEX
  8
MY3DLAYER
10
-7428.243107452387
20
-1174.0083214668487
30
-326.4033234782211
 70
     32
  0
VERTEX
  8
MY3DLAYER
10
-7423.003986485168
20
-1174.0083214668487
30
-326.4033234782211
 70
     32
  0
VERTEX
  8
MY3DLAYER
10
-7421.623546968777
20
-1174.580118236573
30
-326.4033234782211
 70
     32
  0
VERTEX
  8
MY3DLAYER
10
-7419.966692719285
20
-1175.8514672173562
30
-326.4033234782211
 70
     32
  0
VERTEX
  8
MY3DLAYER
10
-7418.695343738501
20
-1177.5083214668487
30
-326.4033234782211
 70
     32
  0
VERTEX
  8
MY3DLAYER
10
-7417.896140358464
20
-1179.4377691060283
30
-326.4033234782211
 70
     32
  0
VERTEX
  8
MY3DLAYER
10
-7417.623546968778
20
-1181.5083214668487
30
-326.4033234782211
 70
     32
  0
VERTEX
  8
MY3DLAYER
10
-7417.896140358464
20
-1183.5788738276688
30
-326.4033234782211
 70
     32
  0
VERTEX
  8
MY3DLAYER
10
-7418.695343738501
20
-1185.5083214668487
30
-326.4033234782211
 70
     32
  0
VERTEX
  8
MY3DLAYER
10
-7419.966692719285
20
-1187.1651757163409
30
-326.4033234782211
 70
     32
  0
VERTEX
  8
MY3DLAYER
10
-7421.623546968777
20
-1188.4365246971242
30
-326.4033234782211
 70
     32
  0
SEQEND
  0
POLYLINE
 8
Component#3
 66
     1
70
    8
 10
0.0
 20
 0.0
 30
0.0
  0
VERTEX
  8
MY3DLAYER
10
-7418.560717282363
20
-1189.9413776637855
30
-326.4033234782211
 70
     32
  0
VERTEX
  8
MY3DLAYER
10
-7420.984012920175
20
-1191.4820230771766
30
-326.4033234782211
 70
     32
  0
VERTEX
  8
MY3DLAYER
10
-7423.723485136207
20
-1192.3429772081454
30
-326.4033234782211
 70
     32
  0
VERTEX
  8
MY3DLAYER
10
-7426.592443426129
20
-1192.4655674554597
30
-326.4033234782211
 70
     32
  0
VERTEX
  8
MY3DLAYER
10
-7429.395373023658
20
-1191.8414394963552
30
-326.4033234782211
 70
     32
  0
VERTEX
  8
MY3DLAYER
10
-7431.941258908787
20
-1190.513126619825
30
-326.4033234782211
 70
     32
  0
VERTEX
  8
MY3DLAYER
10
-7434.056603165714
20
-1188.5711511532636
30
-326.4033234782211
 70
     32
  0
VERTEX
  8
MY3DLAYER
10
-7435.597248579106
20
-1186.1478555154508
30
-326.4033234782211
 70
     32
  0
VERTEX
  8
MY3DLAYER
10
-7436.458202710073
20
-1183.4083832994183
30
-326.4033234782211
 70
     32
  0
VERTEX
  8
MY3DLAYER
10
-7436.5807929573875
20
-1180.5394250094969
30
-326.4033234782211
 70
     32
  0
VERTEX
  8
MY3DLAYER
10
-7435.9566649982835
20
-1177.7364954119669
30
-326.4033234782211
 70
     32
  0
VERTEX
  8
MY3DLAYER
10
-7434.628352121754
20
-1175.1906095268398
30
-326.4033234782211
 70
     32
  0
VERTEX
  8
MY3DLAYER
10
-7432.686376655192
20
-1173.0752652699116
30
-326.4033234782211
 70
     32
  0
VERTEX
  8
MY3DLAYER
10
-7430.263081017379
20
-1171.5346198565205
30
-326.4033234782211
 70
     32
  0
VERTEX
  8
MY3DLAYER
10
-7427.523608801346
20
-1170.6736657255522
30
-326.4033234782211
 70
     32
  0
VERTEX
  8
MY3DLAYER
10
-7424.654650511425
20
-1170.5510754782376
30
-326.4033234782211
 70
     32
  0
VERTEX
  8
MY3DLAYER
10
-7421.851720913895
20
-1171.175203437342
30
-326.4033234782211
 70
     32
  0
VERTEX
  8
MY3DLAYER
10
-7419.305835028768
20
-1172.5035163138723
30
-326.4033234782211
 70
     32
  0
VERTEX
  8
MY3DLAYER
10
-7417.19049077184
20
-1174.4454917804337
30
-326.4033234782211
 70
     32
  0
VERTEX
  8
MY3DLAYER
10
-7415.649845358449
20
-1176.8687874182465
30
-326.4033234782211
 70
     32
  0
VERTEX
  8
MY3DLAYER
10
-7414.78889122748
20
-1179.608259634279
30
-326.4033234782211
 70
     32
  0
VERTEX
  8
MY3DLAYER
10
-7414.666300980166
20
-1182.4772179242004
30
-326.4033234782211
 70
     32
  0
VERTEX
  8
MY3DLAYER
10
-7415.29042893927
20
-1185.2801475217304
30
-326.4033234782211
 70
     32
  0
VERTEX
  8
MY3DLAYER
10
-7416.618741815801
20
-1187.8260334068573
30
-326.4033234782211
 70
     32
  0
VERTEX
  8
MY3DLAYER
10
-7418.560717282363
20
-1189.9413776637855
30
-326.4033234782211
 70
     32
  0
SEQEND
  0
POLYLINE
 8
Component#3
 66
     1
70
    8
 10
0.0
 20
 0.0
 30
0.0
  0
VERTEX
  8
MY3DLAYER
10
-7423.003986485168
20
-1189.0083214668487
30
-326.4033234782211
 70
     32
  0
VERTEX
  8
MY3DLAYER
10
-7421.623546968777
20
-1188.4365246971242
30
-326.4033234782211
 70
     32
  0
VERTEX
  8
MY3DLAYER
10
-7419.966692719285
20
-1187.1651757163409
30
-326.4033234782211
 70
     32
  0
VERTEX
  8
MY3DLAYER
10
-7418.695343738501
20
-1185.5083214668487
30
-326.4033234782211
 70
     32
  0
VERTEX
  8
MY3DLAYER
10
-7417.896140358464
20
-1183.5788738276688
30
-326.4033234782211
 70
     32
  0
VERTEX
  8
MY3DLAYER
10
-7417.623546968778
20
-1181.5083214668487
30
-326.4033234782211
 70
     32
  0
VERTEX
  8
MY3DLAYER
10
-7417.896140358464
20
-1179.4377691060283
30
-326.4033234782211
 70
     32
  0
VERTEX
  8
MY3DLAYER
10
-7418.695343738501
20
-1177.5083214668487
30
-326.4033234782211
 70
     32
  0
VERTEX
  8
MY3DLAYER
10
-7419.966692719285
20
-1175.8514672173562
30
-326.4033234782211
 70
     32
  0
VERTEX
  8
MY3DLAYER
10
-7421.623546968777
20
-1174.580118236573
30
-326.4033234782211
 70
     32
  0
VERTEX
  8
MY3DLAYER
10
-7423.003986485168
20
-1174.0083214668487
30
-326.4033234782211
 70
     32
  0
VERTEX
  8
MY3DLAYER
10
-7428.243107452387
20
-1174.0083214668487
30
-326.4033234782211
 70
     32
  0
VERTEX
  8
MY3DLAYER
10
-7429.623546968777
20
-1174.580118236573
30
-326.4033234782211
 70
     32
  0
VERTEX
  8
MY3DLAYER
10
-7431.280401218269
20
-1175.8514672173562
30
-326.4033234782211
 70
     32
  0
VERTEX
  8
MY3DLAYER
10
-7432.551750199053
20
-1177.5083214668487
30
-326.4033234782211
 70
     32
  0
VERTEX
  8
MY3DLAYER
10
-7433.350953579089
20
-1179.4377691060283
30
-326.4033234782211
 70
     32
  0
VERTEX
  8
MY3DLAYER
10
-7433.623546968777
20
-1181.5083214668487
30
-326.4033234782211
 70
     32
  0
VERTEX
  8
MY3DLAYER
10
-7433.350953579089
20
-1183.5788738276688
30
-326.4033234782211
 70
     32
  0
VERTEX
  8
MY3DLAYER
10
-7432.551750199053
20
-1185.5083214668487
30
-326.4033234782211
 70
     32
  0
VERTEX
  8
MY3DLAYER
10
-7431.2804012182705
20
-1187.1651757163409
30
-326.4033234782211
 70
     32
  0
VERTEX
  8
MY3DLAYER
10
-7429.623546968777
20
-1188.4365246971242
30
-326.4033234782211
 70
     32
  0
VERTEX
  8
MY3DLAYER
10
-7428.243107452387
20
-1189.0083214668487
30
-326.4033234782211
 70
     32
  0
VERTEX
  8
MY3DLAYER
10
-7423.003986485168
20
-1189.0083214668487
30
-326.4033234782211
 70
     32
  0
SEQEND
  0
POLYLINE
 8
Layer0
 66
     1
70
    8
 10
0.0
 20
 0.0
 30
0.0
  0
VERTEX
  8
MY3DLAYER
10
-7348.980204054071
20
-1156.7044532098341
30
-326.4033234782211
 70
     32
  0
VERTEX
  8
MY3DLAYER
10
-7351.035689507275
20
-1154.699227639052
30
-326.4033234782211
 70
     32
  0
VERTEX
  8
MY3DLAYER
10
-7353.540126559529
20
-1153.2943272549185
30
-326.4033234782211
 70
     32
  0
VERTEX
  8
MY3DLAYER
10
-7356.322841964503
20
-1152.5854936969045
30
-326.4033234782211
 70
     32
  0
VERTEX
  8
MY3DLAYER
10
-7359.194198266001
20
-1152.6210328005857
30
-326.4033234782211
 70
     32
  0
VERTEX
  8
MY3DLAYER
10
-7361.958517277219
20
-1153.3985226347777
30
-326.4033234782211
 70
     32
  0
VERTEX
  8
MY3DLAYER
10
-7364.427415225792
20
-1154.8649785521427
30
-326.4033234782211
 70
     32
  0
VERTEX
  8
MY3DLAYER
10
-7366.432640796575
20
-1156.9204640053456
30
-326.4033234782211
 70
     32
  0
VERTEX
  8
MY3DLAYER
10
-7367.837541180707
20
-1159.4249010576004
30
-326.4033234782211
 70
     32
  0
VERTEX
  8
MY3DLAYER
10
-7368.546374738722
20
-1162.2076164625744
30
-326.4033234782211
 70
     32
  0
VERTEX
  8
MY3DLAYER
10
-7368.51083563504
20
-1165.0789727640731
30
-326.4033234782211
 70
     32
  0
VERTEX
  8
MY3DLAYER
10
-7367.733345800848
20
-1167.84329177529
30
-326.4033234782211
 70
     32
  0
VERTEX
  8
MY3DLAYER
10
-7366.266889883484
20
-1170.3121897238636
30
-326.4033234782211
 70
     32
  0
VERTEX
  8
MY3DLAYER
10
-7364.21140443028
20
-1172.3174152946456
30
-326.4033234782211
 70
     32
  0
VERTEX
  8
MY3DLAYER
10
-7361.706967378025
20
-1173.7223156787793
30
-326.4033234782211
 70
     32
  0
VERTEX
  8
MY3DLAYER
10
-7358.9242519730515
20
-1174.4311492367933
30
-326.4033234782211
 70
     32
  0
VERTEX
  8
MY3DLAYER
10
-7356.052895671553
20
-1174.3956101331119
30
-326.4033234782211
 70
     32
  0
VERTEX
  8
MY3DLAYER
10
-7353.288576660336
20
-1173.6181202989198
30
-326.4033234782211
 70
     32
  0
VERTEX
  8
MY3DLAYER
10
-7350.819678711763
20
-1172.1516643815548
30
-326.4033234782211
 70
     32
  0
VERTEX
  8
MY3DLAYER
10
-7348.814453140981
20
-1170.096178928352
30
-326.4033234782211
 70
     32
  0
VERTEX
  8
MY3DLAYER
10
-7347.409552756847
20
-1167.591741876097
30
-326.4033234782211
 70
     32
  0
VERTEX
  8
MY3DLAYER
10
-7346.700719198832
20
-1164.8090264711232
30
-326.4033234782211
 70
     32
  0
VERTEX
  8
MY3DLAYER
10
-7346.736258302514
20
-1161.9376701696244
30
-326.4033234782211
 70
     32
  0
VERTEX
  8
MY3DLAYER
10
-7347.513748136706
20
-1159.1733511584077
30
-326.4033234782211
 70
     32
  0
VERTEX
  8
MY3DLAYER
10
-7348.980204054071
20
-1156.7044532098341
30
-326.4033234782211
 70
     32
  0
SEQEND
 0
ENDSEC
 0
EOF
